ISO-10303-21;
HEADER;
FILE_DESCRIPTION((''),'2;1');
FILE_NAME('PBG__STEPVORLAGE','2016-08-09T',('deusss58'),(''),
'PRO/ENGINEER BY PARAMETRIC TECHNOLOGY CORPORATION, 2014430',
'PRO/ENGINEER BY PARAMETRIC TECHNOLOGY CORPORATION, 2014430','');
FILE_SCHEMA(('CONFIG_CONTROL_DESIGN'));
ENDSEC;
DATA;
#1=CARTESIAN_POINT('',(0.E0,0.E0,-2.E0));
#2=DIRECTION('',(0.E0,0.E0,-1.E0));
#3=DIRECTION('',(0.E0,-1.E0,0.E0));
#4=AXIS2_PLACEMENT_3D('',#1,#2,#3);
#6=CARTESIAN_POINT('',(4.998366433385E0,-4.655459135325E-1,0.E0));
#7=CARTESIAN_POINT('',(4.915193140829E0,-4.267615702593E-1,0.E0));
#8=CARTESIAN_POINT('',(4.746588704861E0,-3.481400305686E-1,-1.088759543098E-2));
#9=CARTESIAN_POINT('',(4.478327914304E0,-2.230479695491E-1,-6.633871912725E-2));
#10=CARTESIAN_POINT('',(4.220408006019E0,-1.027779411252E-1,
-1.599971296464E-1));
#11=CARTESIAN_POINT('',(4.071011630372E0,-3.311326706062E-2,
-2.375481880577E-1));
#12=CARTESIAN_POINT('',(4.E0,0.E0,-2.796511981578E-1));
#14=CARTESIAN_POINT('',(0.E0,-5.02E0,-2.E0));
#15=DIRECTION('',(1.E0,0.E0,0.E0));
#16=DIRECTION('',(0.E0,1.E0,0.E0));
#17=AXIS2_PLACEMENT_3D('',#14,#15,#16);
#19=CARTESIAN_POINT('',(0.E0,0.E0,-2.E0));
#20=DIRECTION('',(0.E0,0.E0,1.E0));
#21=DIRECTION('',(0.E0,-1.E0,0.E0));
#22=AXIS2_PLACEMENT_3D('',#19,#20,#21);
#24=CARTESIAN_POINT('',(0.E0,5.02E0,-2.E0));
#25=DIRECTION('',(-1.E0,0.E0,0.E0));
#26=DIRECTION('',(0.E0,-1.E0,0.E0));
#27=AXIS2_PLACEMENT_3D('',#24,#25,#26);
#29=CARTESIAN_POINT('',(4.E0,0.E0,-2.796511981578E-1));
#30=CARTESIAN_POINT('',(4.071240611876E0,3.322004288935E-2,-2.374124242327E-1));
#31=CARTESIAN_POINT('',(4.220929033885E0,1.030209004095E-1,-1.597697500769E-1));
#32=CARTESIAN_POINT('',(4.478418148558E0,2.230900464731E-1,-6.635303223671E-2));
#33=CARTESIAN_POINT('',(4.745983127202E0,3.478576450688E-1,-1.097940757628E-2));
#34=CARTESIAN_POINT('',(4.914913591300E0,4.266312141734E-1,0.E0));
#35=CARTESIAN_POINT('',(4.998366433385E0,4.655459135325E-1,0.E0));
#37=DIRECTION('',(0.E0,0.E0,-1.E0));
#38=VECTOR('',#37,1.720348801842E0);
#39=CARTESIAN_POINT('',(4.E0,0.E0,-2.796511981578E-1));
#40=LINE('',#39,#38);
#41=DIRECTION('',(9.063077870367E-1,-4.226182617407E-1,0.E0));
#42=VECTOR('',#41,1.030128398825E0);
#43=CARTESIAN_POINT('',(4.998366433385E0,-4.655459135325E-1,0.E0));
#44=LINE('',#43,#42);
#45=DIRECTION('',(-9.063077870367E-1,-4.226182617407E-1,0.E0));
#46=VECTOR('',#45,1.030128398825E0);
#47=CARTESIAN_POINT('',(5.931979822888E0,9.008969868136E-1,0.E0));
#48=LINE('',#47,#46);
#49=CARTESIAN_POINT('',(0.E0,0.E0,0.E0));
#50=DIRECTION('',(0.E0,0.E0,1.E0));
#51=DIRECTION('',(9.956905245788E-1,9.273822978735E-2,0.E0));
#52=AXIS2_PLACEMENT_3D('',#49,#50,#51);
#54=CARTESIAN_POINT('',(0.E0,0.E0,0.E0));
#55=DIRECTION('',(0.E0,0.E0,-1.E0));
#56=DIRECTION('',(0.E0,-1.E0,0.E0));
#57=AXIS2_PLACEMENT_3D('',#54,#55,#56);
#59=CARTESIAN_POINT('',(0.E0,0.E0,0.E0));
#60=DIRECTION('',(0.E0,0.E0,1.E0));
#61=DIRECTION('',(0.E0,-1.E0,0.E0));
#62=AXIS2_PLACEMENT_3D('',#59,#60,#61);
#64=CARTESIAN_POINT('',(0.E0,0.E0,-1.E0));
#65=DIRECTION('',(0.E0,0.E0,-1.E0));
#66=DIRECTION('',(9.886633038147E-1,-1.501494978023E-1,0.E0));
#67=AXIS2_PLACEMENT_3D('',#64,#65,#66);
#69=DIRECTION('',(0.E0,0.E0,-1.E0));
#70=VECTOR('',#69,1.E0);
#71=CARTESIAN_POINT('',(5.931979822888E0,9.008969868136E-1,0.E0));
#72=LINE('',#71,#70);
#73=CARTESIAN_POINT('',(0.E0,0.E0,0.E0));
#74=DIRECTION('',(0.E0,0.E0,1.E0));
#75=DIRECTION('',(9.886633038147E-1,1.501494978023E-1,0.E0));
#76=AXIS2_PLACEMENT_3D('',#73,#74,#75);
#78=DIRECTION('',(0.E0,0.E0,-1.E0));
#79=VECTOR('',#78,1.E0);
#80=CARTESIAN_POINT('',(5.931979822888E0,-9.008969868136E-1,0.E0));
#81=LINE('',#80,#79);
#82=DIRECTION('',(9.063077870367E-1,-4.226182617407E-1,0.E0));
#83=VECTOR('',#82,1.051374390895E0);
#84=CARTESIAN_POINT('',(4.979111025329E0,-4.565669692947E-1,-1.E0));
#85=LINE('',#84,#83);
#86=DIRECTION('',(-9.063077870366E-1,-4.226182617407E-1,0.E0));
#87=VECTOR('',#86,1.051374390895E0);
#88=CARTESIAN_POINT('',(5.931979822888E0,9.008969868136E-1,-1.E0));
#89=LINE('',#88,#87);
#90=CARTESIAN_POINT('',(0.E0,0.E0,-1.E0));
#91=DIRECTION('',(0.E0,0.E0,1.E0));
#92=DIRECTION('',(0.E0,1.E0,0.E0));
#93=AXIS2_PLACEMENT_3D('',#90,#91,#92);
#95=CARTESIAN_POINT('',(4.E0,0.E0,-2.E0));
#96=CARTESIAN_POINT('',(4.E0,0.E0,-1.955556438614E0));
#97=CARTESIAN_POINT('',(4.005849841993E0,-2.727826120115E-3,-1.867602474372E0));
#98=CARTESIAN_POINT('',(4.032169068095E0,-1.500068280831E-2,-1.736898535951E0));
#99=CARTESIAN_POINT('',(4.075049909817E0,-3.499634769138E-2,-1.612138629453E0));
#100=CARTESIAN_POINT('',(4.132984820827E0,-6.201184036994E-2,
-1.495422165942E0));
#101=CARTESIAN_POINT('',(4.204004435553E0,-9.512883059589E-2,
-1.388870420818E0));
#102=CARTESIAN_POINT('',(4.287508091166E0,-1.340672246925E-1,
-1.292339252950E0));
#103=CARTESIAN_POINT('',(4.383218689023E0,-1.786978094396E-1,
-1.206502521422E0));
#104=CARTESIAN_POINT('',(4.489764002646E0,-2.283807051223E-1,
-1.133264034790E0));
#105=CARTESIAN_POINT('',(4.605012354357E0,-2.821218941150E-1,
-1.074541997405E0));
#106=CARTESIAN_POINT('',(4.726722980141E0,-3.388764909969E-1,
-1.031689519379E0));
#107=CARTESIAN_POINT('',(4.852647544492E0,-3.975960797038E-1,
-1.005728926711E0));
#108=CARTESIAN_POINT('',(4.936780139293E0,-4.368277529598E-1,-1.E0));
#109=CARTESIAN_POINT('',(4.979111025329E0,-4.565669692947E-1,-1.E0));
#111=CARTESIAN_POINT('',(0.E0,0.E0,-2.E0));
#112=DIRECTION('',(0.E0,0.E0,1.E0));
#113=DIRECTION('',(0.E0,-1.E0,0.E0));
#114=AXIS2_PLACEMENT_3D('',#111,#112,#113);
#116=CARTESIAN_POINT('',(0.E0,0.E0,-2.E0));
#117=DIRECTION('',(0.E0,0.E0,1.E0));
#118=DIRECTION('',(1.E0,0.E0,0.E0));
#119=AXIS2_PLACEMENT_3D('',#116,#117,#118);
#121=DIRECTION('',(0.E0,0.E0,-1.E0));
#122=VECTOR('',#121,1.4E0);
#123=CARTESIAN_POINT('',(0.E0,4.E0,-2.E0));
#124=LINE('',#123,#122);
#125=DIRECTION('',(0.E0,0.E0,-1.E0));
#126=VECTOR('',#125,1.4E0);
#127=CARTESIAN_POINT('',(0.E0,-4.E0,-2.E0));
#128=LINE('',#127,#126);
#129=CARTESIAN_POINT('',(4.979111025329E0,4.565669692947E-1,-1.E0));
#130=CARTESIAN_POINT('',(4.932911616209E0,4.350238310198E-1,-1.E0));
#131=CARTESIAN_POINT('',(4.841347490060E0,3.923267777844E-1,-1.006828382185E0));
#132=CARTESIAN_POINT('',(4.705275165476E0,3.288752107678E-1,-1.037385830518E0));
#133=CARTESIAN_POINT('',(4.574167125410E0,2.677385276395E-1,-1.087835815917E0));
#134=CARTESIAN_POINT('',(4.451173384127E0,2.103856041743E-1,-1.156777954920E0));
#135=CARTESIAN_POINT('',(4.338157707668E0,1.576855287497E-1,-1.243399208604E0));
#136=CARTESIAN_POINT('',(4.239665430489E0,1.117578256320E-1,-1.343759554827E0));
#137=CARTESIAN_POINT('',(4.155920013792E0,7.270669649083E-2,-1.456729969968E0));
#138=CARTESIAN_POINT('',(4.088320416257E0,4.118448647198E-2,-1.580605728924E0));
#139=CARTESIAN_POINT('',(4.037916653916E0,1.768082609275E-2,-1.714746915639E0));
#140=CARTESIAN_POINT('',(4.006977120482E0,3.253484712814E-3,-1.855787846394E0));
#141=CARTESIAN_POINT('',(4.E0,0.E0,-1.951487809877E0));
#142=CARTESIAN_POINT('',(4.E0,0.E0,-2.E0));
#144=CARTESIAN_POINT('',(0.E0,0.E0,-1.E0));
#145=DIRECTION('',(0.E0,0.E0,1.E0));
#146=DIRECTION('',(9.958222050657E-1,9.131339385895E-2,0.E0));
#147=AXIS2_PLACEMENT_3D('',#144,#145,#146);
#149=CARTESIAN_POINT('',(0.E0,5.E0,-2.E0));
#150=DIRECTION('',(1.E0,0.E0,0.E0));
#151=DIRECTION('',(0.E0,0.E0,1.E0));
#152=AXIS2_PLACEMENT_3D('',#149,#150,#151);
#154=CARTESIAN_POINT('',(0.E0,0.E0,-2.E0));
#155=DIRECTION('',(0.E0,0.E0,-1.E0));
#156=DIRECTION('',(0.E0,-1.E0,0.E0));
#157=AXIS2_PLACEMENT_3D('',#154,#155,#156);
#159=CARTESIAN_POINT('',(0.E0,0.E0,-3.4E0));
#160=DIRECTION('',(0.E0,0.E0,-1.E0));
#161=DIRECTION('',(0.E0,-1.E0,0.E0));
#162=AXIS2_PLACEMENT_3D('',#159,#160,#161);
#164=DIRECTION('',(0.E0,3.420201433257E-1,-9.396926207859E-1));
#165=VECTOR('',#164,6.385066634855E-1);
#166=CARTESIAN_POINT('',(0.E0,-4.E0,-3.4E0));
#167=LINE('',#166,#165);
#168=CARTESIAN_POINT('',(0.E0,0.E0,-3.4E0));
#169=DIRECTION('',(0.E0,0.E0,1.E0));
#170=DIRECTION('',(0.E0,-1.E0,0.E0));
#171=AXIS2_PLACEMENT_3D('',#168,#169,#170);
#173=DIRECTION('',(0.E0,-3.420201433257E-1,-9.396926207859E-1));
#174=VECTOR('',#173,6.385066634855E-1);
#175=CARTESIAN_POINT('',(0.E0,4.E0,-3.4E0));
#176=LINE('',#175,#174);
#177=CARTESIAN_POINT('',(0.E0,0.E0,-4.E0));
#178=DIRECTION('',(0.E0,0.E0,-1.E0));
#179=DIRECTION('',(0.E0,-1.E0,0.E0));
#180=AXIS2_PLACEMENT_3D('',#177,#178,#179);
#182=CARTESIAN_POINT('',(0.E0,0.E0,-4.E0));
#183=DIRECTION('',(0.E0,0.E0,1.E0));
#184=DIRECTION('',(0.E0,-1.E0,0.E0));
#185=AXIS2_PLACEMENT_3D('',#182,#183,#184);
#187=DIRECTION('',(0.E0,7.071067811865E-1,7.071067811865E-1));
#188=VECTOR('',#187,4.949747468306E-1);
#189=CARTESIAN_POINT('',(0.E0,-3.37E0,-4.E0));
#190=LINE('',#189,#188);
#191=CARTESIAN_POINT('',(0.E0,0.E0,-4.E0));
#192=DIRECTION('',(0.E0,0.E0,1.E0));
#193=DIRECTION('',(0.E0,-1.E0,0.E0));
#194=AXIS2_PLACEMENT_3D('',#191,#192,#193);
#196=DIRECTION('',(0.E0,-7.071067811865E-1,7.071067811865E-1));
#197=VECTOR('',#196,4.949747468306E-1);
#198=CARTESIAN_POINT('',(0.E0,3.37E0,-4.E0));
#199=LINE('',#198,#197);
#200=CARTESIAN_POINT('',(0.E0,0.E0,-4.E0));
#201=DIRECTION('',(0.E0,0.E0,-1.E0));
#202=DIRECTION('',(0.E0,-1.E0,0.E0));
#203=AXIS2_PLACEMENT_3D('',#200,#201,#202);
#205=CARTESIAN_POINT('',(0.E0,0.E0,-3.65E0));
#206=DIRECTION('',(0.E0,0.E0,-1.E0));
#207=DIRECTION('',(0.E0,-1.E0,0.E0));
#208=AXIS2_PLACEMENT_3D('',#205,#206,#207);
#210=DIRECTION('',(0.E0,0.E0,1.E0));
#211=VECTOR('',#210,1.65E0);
#212=CARTESIAN_POINT('',(0.E0,-3.02E0,-3.65E0));
#213=LINE('',#212,#211);
#214=CARTESIAN_POINT('',(0.E0,0.E0,-3.65E0));
#215=DIRECTION('',(0.E0,0.E0,1.E0));
#216=DIRECTION('',(0.E0,-1.E0,0.E0));
#217=AXIS2_PLACEMENT_3D('',#214,#215,#216);
#219=DIRECTION('',(0.E0,0.E0,1.E0));
#220=VECTOR('',#219,1.65E0);
#221=CARTESIAN_POINT('',(0.E0,3.02E0,-3.65E0));
#222=LINE('',#221,#220);
#223=CARTESIAN_POINT('',(0.E0,-4.E0,-2.E0));
#224=CARTESIAN_POINT('',(0.E0,-4.E0,-3.4E0));
#225=VERTEX_POINT('',#223);
#226=VERTEX_POINT('',#224);
#227=CARTESIAN_POINT('',(0.E0,-3.781617859440E0,-4.E0));
#228=VERTEX_POINT('',#227);
#229=CARTESIAN_POINT('',(0.E0,-3.37E0,-4.E0));
#230=CARTESIAN_POINT('',(0.E0,-3.02E0,-3.65E0));
#231=VERTEX_POINT('',#229);
#232=VERTEX_POINT('',#230);
#233=CARTESIAN_POINT('',(0.E0,-3.02E0,-2.E0));
#234=VERTEX_POINT('',#233);
#235=CARTESIAN_POINT('',(0.E0,4.E0,-2.E0));
#236=CARTESIAN_POINT('',(0.E0,4.E0,-3.4E0));
#237=VERTEX_POINT('',#235);
#238=VERTEX_POINT('',#236);
#239=CARTESIAN_POINT('',(0.E0,3.781617859440E0,-4.E0));
#240=VERTEX_POINT('',#239);
#241=CARTESIAN_POINT('',(0.E0,3.37E0,-4.E0));
#242=CARTESIAN_POINT('',(0.E0,3.02E0,-3.65E0));
#243=VERTEX_POINT('',#241);
#244=VERTEX_POINT('',#242);
#245=CARTESIAN_POINT('',(0.E0,3.02E0,-2.E0));
#246=VERTEX_POINT('',#245);
#247=CARTESIAN_POINT('',(0.E0,-5.02E0,0.E0));
#248=VERTEX_POINT('',#247);
#249=CARTESIAN_POINT('',(0.E0,5.02E0,0.E0));
#250=VERTEX_POINT('',#249);
#251=CARTESIAN_POINT('',(0.E0,5.E0,-1.E0));
#252=VERTEX_POINT('',#251);
#253=CARTESIAN_POINT('',(4.998366433385E0,-4.655459135325E-1,0.E0));
#254=CARTESIAN_POINT('',(5.931979822888E0,-9.008969868136E-1,0.E0));
#255=VERTEX_POINT('',#253);
#256=VERTEX_POINT('',#254);
#257=CARTESIAN_POINT('',(5.931979822888E0,9.008969868136E-1,0.E0));
#258=CARTESIAN_POINT('',(4.998366433385E0,4.655459135325E-1,0.E0));
#259=VERTEX_POINT('',#257);
#260=VERTEX_POINT('',#258);
#261=CARTESIAN_POINT('',(4.979111025329E0,-4.565669692947E-1,-1.E0));
#262=CARTESIAN_POINT('',(5.931979822888E0,-9.008969868136E-1,-1.E0));
#263=VERTEX_POINT('',#261);
#264=VERTEX_POINT('',#262);
#265=CARTESIAN_POINT('',(5.931979822888E0,9.008969868136E-1,-1.E0));
#266=CARTESIAN_POINT('',(4.979111025329E0,4.565669692947E-1,-1.E0));
#267=VERTEX_POINT('',#265);
#268=VERTEX_POINT('',#266);
#269=VERTEX_POINT('',#12);
#270=VERTEX_POINT('',#95);
#271=CARTESIAN_POINT('',(0.E0,0.E0,-2.E0));
#272=DIRECTION('',(0.E0,0.E0,-1.E0));
#273=DIRECTION('',(0.E0,-1.E0,0.E0));
#274=AXIS2_PLACEMENT_3D('',#271,#272,#273);
#275=TOROIDAL_SURFACE('',#274,5.02E0,2.E0);
#277=ORIENTED_EDGE('',*,*,#276,.T.);
#279=ORIENTED_EDGE('',*,*,#278,.T.);
#281=ORIENTED_EDGE('',*,*,#280,.F.);
#283=ORIENTED_EDGE('',*,*,#282,.F.);
#284=EDGE_LOOP('',(#277,#279,#281,#283));
#285=FACE_OUTER_BOUND('',#284,.F.);
#286=ADVANCED_FACE('',(#285),#275,.T.);
#287=CARTESIAN_POINT('',(0.E0,0.E0,-2.E0));
#288=DIRECTION('',(0.E0,0.E0,-1.E0));
#289=DIRECTION('',(0.E0,-1.E0,0.E0));
#290=AXIS2_PLACEMENT_3D('',#287,#288,#289);
#291=TOROIDAL_SURFACE('',#290,5.02E0,2.E0);
#293=ORIENTED_EDGE('',*,*,#292,.F.);
#295=ORIENTED_EDGE('',*,*,#294,.F.);
#296=ORIENTED_EDGE('',*,*,#276,.F.);
#298=ORIENTED_EDGE('',*,*,#297,.T.);
#299=ORIENTED_EDGE('',*,*,#280,.T.);
#301=ORIENTED_EDGE('',*,*,#300,.F.);
#303=ORIENTED_EDGE('',*,*,#302,.F.);
#304=EDGE_LOOP('',(#293,#295,#296,#298,#299,#301,#303));
#305=FACE_OUTER_BOUND('',#304,.F.);
#306=ADVANCED_FACE('',(#305),#291,.T.);
#307=CARTESIAN_POINT('',(4.E0,0.E0,0.E0));
#308=DIRECTION('',(-4.226182617407E-1,-9.063077870367E-1,0.E0));
#309=DIRECTION('',(9.063077870367E-1,-4.226182617407E-1,0.E0));
#310=AXIS2_PLACEMENT_3D('',#307,#308,#309);
#311=PLANE('',#310);
#313=ORIENTED_EDGE('',*,*,#312,.F.);
#314=ORIENTED_EDGE('',*,*,#292,.T.);
#316=ORIENTED_EDGE('',*,*,#315,.T.);
#318=ORIENTED_EDGE('',*,*,#317,.T.);
#320=ORIENTED_EDGE('',*,*,#319,.T.);
#322=ORIENTED_EDGE('',*,*,#321,.F.);
#323=EDGE_LOOP('',(#313,#314,#316,#318,#320,#322));
#324=FACE_OUTER_BOUND('',#323,.F.);
#325=ADVANCED_FACE('',(#324),#311,.F.);
#326=CARTESIAN_POINT('',(0.E0,0.E0,0.E0));
#327=DIRECTION('',(0.E0,0.E0,-1.E0));
#328=DIRECTION('',(0.E0,-1.E0,0.E0));
#329=AXIS2_PLACEMENT_3D('',#326,#327,#328);
#330=PLANE('',#329);
#331=ORIENTED_EDGE('',*,*,#312,.T.);
#333=ORIENTED_EDGE('',*,*,#332,.F.);
#335=ORIENTED_EDGE('',*,*,#334,.T.);
#336=ORIENTED_EDGE('',*,*,#300,.T.);
#337=ORIENTED_EDGE('',*,*,#278,.F.);
#338=ORIENTED_EDGE('',*,*,#294,.T.);
#339=EDGE_LOOP('',(#331,#333,#335,#336,#337,#338));
#340=FACE_OUTER_BOUND('',#339,.F.);
#341=ADVANCED_FACE('',(#340),#330,.F.);
#342=CARTESIAN_POINT('',(0.E0,0.E0,2.E-1));
#343=DIRECTION('',(0.E0,0.E0,-1.E0));
#344=DIRECTION('',(0.E0,-1.E0,0.E0));
#345=AXIS2_PLACEMENT_3D('',#342,#343,#344);
#346=CYLINDRICAL_SURFACE('',#345,6.E0);
#348=ORIENTED_EDGE('',*,*,#347,.T.);
#350=ORIENTED_EDGE('',*,*,#349,.F.);
#351=ORIENTED_EDGE('',*,*,#332,.T.);
#352=ORIENTED_EDGE('',*,*,#321,.T.);
#353=EDGE_LOOP('',(#348,#350,#351,#352));
#354=FACE_OUTER_BOUND('',#353,.F.);
#355=ADVANCED_FACE('',(#354),#346,.T.);
#356=CARTESIAN_POINT('',(0.E0,0.E0,-1.E0));
#357=DIRECTION('',(0.E0,0.E0,-1.E0));
#358=DIRECTION('',(0.E0,-1.E0,0.E0));
#359=AXIS2_PLACEMENT_3D('',#356,#357,#358);
#360=PLANE('',#359);
#361=ORIENTED_EDGE('',*,*,#319,.F.);
#363=ORIENTED_EDGE('',*,*,#362,.F.);
#365=ORIENTED_EDGE('',*,*,#364,.F.);
#367=ORIENTED_EDGE('',*,*,#366,.F.);
#368=ORIENTED_EDGE('',*,*,#347,.F.);
#369=EDGE_LOOP('',(#361,#363,#365,#367,#368));
#370=FACE_OUTER_BOUND('',#369,.F.);
#371=ADVANCED_FACE('',(#370),#360,.T.);
#372=CARTESIAN_POINT('',(0.E0,0.E0,-2.E0));
#373=DIRECTION('',(0.E0,0.E0,-1.E0));
#374=DIRECTION('',(0.E0,-1.E0,0.E0));
#375=AXIS2_PLACEMENT_3D('',#372,#373,#374);
#376=TOROIDAL_SURFACE('',#375,5.E0,1.E0);
#377=ORIENTED_EDGE('',*,*,#362,.T.);
#378=ORIENTED_EDGE('',*,*,#317,.F.);
#380=ORIENTED_EDGE('',*,*,#379,.F.);
#382=ORIENTED_EDGE('',*,*,#381,.T.);
#384=ORIENTED_EDGE('',*,*,#383,.F.);
#385=EDGE_LOOP('',(#377,#378,#380,#382,#384));
#386=FACE_OUTER_BOUND('',#385,.F.);
#387=ADVANCED_FACE('',(#386),#376,.F.);
#388=CARTESIAN_POINT('',(0.E0,0.E0,2.E-1));
#389=DIRECTION('',(0.E0,0.E0,-1.E0));
#390=DIRECTION('',(0.E0,-1.E0,0.E0));
#391=AXIS2_PLACEMENT_3D('',#388,#389,#390);
#392=CYLINDRICAL_SURFACE('',#391,4.E0);
#393=ORIENTED_EDGE('',*,*,#379,.T.);
#395=ORIENTED_EDGE('',*,*,#394,.T.);
#397=ORIENTED_EDGE('',*,*,#396,.T.);
#399=ORIENTED_EDGE('',*,*,#398,.F.);
#401=ORIENTED_EDGE('',*,*,#400,.F.);
#402=EDGE_LOOP('',(#393,#395,#397,#399,#401));
#403=FACE_OUTER_BOUND('',#402,.F.);
#404=ADVANCED_FACE('',(#403),#392,.T.);
#405=CARTESIAN_POINT('',(0.E0,0.E0,-2.E0));
#406=DIRECTION('',(0.E0,0.E0,-1.E0));
#407=DIRECTION('',(0.E0,-1.E0,0.E0));
#408=AXIS2_PLACEMENT_3D('',#405,#406,#407);
#409=TOROIDAL_SURFACE('',#408,5.E0,1.E0);
#411=ORIENTED_EDGE('',*,*,#410,.F.);
#412=ORIENTED_EDGE('',*,*,#364,.T.);
#413=ORIENTED_EDGE('',*,*,#383,.T.);
#414=ORIENTED_EDGE('',*,*,#394,.F.);
#415=EDGE_LOOP('',(#411,#412,#413,#414));
#416=FACE_OUTER_BOUND('',#415,.F.);
#417=ADVANCED_FACE('',(#416),#409,.F.);
#418=CARTESIAN_POINT('',(5.931979822888E0,9.008969868136E-1,0.E0));
#419=DIRECTION('',(-4.226182617407E-1,9.063077870367E-1,0.E0));
#420=DIRECTION('',(-9.063077870367E-1,-4.226182617407E-1,0.E0));
#421=AXIS2_PLACEMENT_3D('',#418,#419,#420);
#422=PLANE('',#421);
#423=ORIENTED_EDGE('',*,*,#334,.F.);
#424=ORIENTED_EDGE('',*,*,#349,.T.);
#425=ORIENTED_EDGE('',*,*,#366,.T.);
#426=ORIENTED_EDGE('',*,*,#410,.T.);
#427=ORIENTED_EDGE('',*,*,#315,.F.);
#428=ORIENTED_EDGE('',*,*,#302,.T.);
#429=EDGE_LOOP('',(#423,#424,#425,#426,#427,#428));
#430=FACE_OUTER_BOUND('',#429,.F.);
#431=ADVANCED_FACE('',(#430),#422,.F.);
#432=CARTESIAN_POINT('',(0.E0,0.E0,2.E-1));
#433=DIRECTION('',(0.E0,0.E0,-1.E0));
#434=DIRECTION('',(0.E0,-1.E0,0.E0));
#435=AXIS2_PLACEMENT_3D('',#432,#433,#434);
#436=CYLINDRICAL_SURFACE('',#435,4.E0);
#437=ORIENTED_EDGE('',*,*,#400,.T.);
#439=ORIENTED_EDGE('',*,*,#438,.T.);
#440=ORIENTED_EDGE('',*,*,#396,.F.);
#441=ORIENTED_EDGE('',*,*,#381,.F.);
#442=EDGE_LOOP('',(#437,#439,#440,#441));
#443=FACE_OUTER_BOUND('',#442,.F.);
#444=ADVANCED_FACE('',(#443),#436,.T.);
#445=CARTESIAN_POINT('',(0.E0,0.E0,-3.7E0));
#446=DIRECTION('',(0.E0,0.E0,1.E0));
#447=DIRECTION('',(0.E0,1.E0,0.E0));
#448=AXIS2_PLACEMENT_3D('',#445,#446,#447);
#449=CONICAL_SURFACE('',#448,3.890808929720E0,2.E1);
#451=ORIENTED_EDGE('',*,*,#450,.T.);
#453=ORIENTED_EDGE('',*,*,#452,.T.);
#455=ORIENTED_EDGE('',*,*,#454,.F.);
#456=ORIENTED_EDGE('',*,*,#438,.F.);
#457=EDGE_LOOP('',(#451,#453,#455,#456));
#458=FACE_OUTER_BOUND('',#457,.F.);
#459=ADVANCED_FACE('',(#458),#449,.T.);
#460=CARTESIAN_POINT('',(0.E0,0.E0,-3.7E0));
#461=DIRECTION('',(0.E0,0.E0,1.E0));
#462=DIRECTION('',(0.E0,1.E0,0.E0));
#463=AXIS2_PLACEMENT_3D('',#460,#461,#462);
#464=CONICAL_SURFACE('',#463,3.890808929720E0,2.E1);
#465=ORIENTED_EDGE('',*,*,#450,.F.);
#466=ORIENTED_EDGE('',*,*,#398,.T.);
#467=ORIENTED_EDGE('',*,*,#454,.T.);
#469=ORIENTED_EDGE('',*,*,#468,.F.);
#470=EDGE_LOOP('',(#465,#466,#467,#469));
#471=FACE_OUTER_BOUND('',#470,.F.);
#472=ADVANCED_FACE('',(#471),#464,.T.);
#473=CARTESIAN_POINT('',(0.E0,0.E0,-4.E0));
#474=DIRECTION('',(0.E0,0.E0,-1.E0));
#475=DIRECTION('',(0.E0,-1.E0,0.E0));
#476=AXIS2_PLACEMENT_3D('',#473,#474,#475);
#477=PLANE('',#476);
#478=ORIENTED_EDGE('',*,*,#452,.F.);
#479=ORIENTED_EDGE('',*,*,#468,.T.);
#480=EDGE_LOOP('',(#478,#479));
#481=FACE_OUTER_BOUND('',#480,.F.);
#483=ORIENTED_EDGE('',*,*,#482,.F.);
#485=ORIENTED_EDGE('',*,*,#484,.T.);
#486=EDGE_LOOP('',(#483,#485));
#487=FACE_BOUND('',#486,.F.);
#488=ADVANCED_FACE('',(#481,#487),#477,.T.);
#489=CARTESIAN_POINT('',(0.E0,0.E0,-3.825E0));
#490=DIRECTION('',(0.E0,0.E0,-1.E0));
#491=DIRECTION('',(0.E0,-1.E0,0.E0));
#492=AXIS2_PLACEMENT_3D('',#489,#490,#491);
#493=CONICAL_SURFACE('',#492,3.195E0,4.5E1);
#495=ORIENTED_EDGE('',*,*,#494,.F.);
#496=ORIENTED_EDGE('',*,*,#482,.T.);
#498=ORIENTED_EDGE('',*,*,#497,.T.);
#500=ORIENTED_EDGE('',*,*,#499,.F.);
#501=EDGE_LOOP('',(#495,#496,#498,#500));
#502=FACE_OUTER_BOUND('',#501,.F.);
#503=ADVANCED_FACE('',(#502),#493,.F.);
#504=CARTESIAN_POINT('',(0.E0,0.E0,-3.825E0));
#505=DIRECTION('',(0.E0,0.E0,-1.E0));
#506=DIRECTION('',(0.E0,-1.E0,0.E0));
#507=AXIS2_PLACEMENT_3D('',#504,#505,#506);
#508=CONICAL_SURFACE('',#507,3.195E0,4.5E1);
#509=ORIENTED_EDGE('',*,*,#494,.T.);
#511=ORIENTED_EDGE('',*,*,#510,.T.);
#512=ORIENTED_EDGE('',*,*,#497,.F.);
#513=ORIENTED_EDGE('',*,*,#484,.F.);
#514=EDGE_LOOP('',(#509,#511,#512,#513));
#515=FACE_OUTER_BOUND('',#514,.F.);
#516=ADVANCED_FACE('',(#515),#508,.F.);
#517=CARTESIAN_POINT('',(0.E0,0.E0,2.E-1));
#518=DIRECTION('',(0.E0,0.E0,-1.E0));
#519=DIRECTION('',(0.E0,-1.E0,0.E0));
#520=AXIS2_PLACEMENT_3D('',#517,#518,#519);
#521=CYLINDRICAL_SURFACE('',#520,3.02E0);
#523=ORIENTED_EDGE('',*,*,#522,.T.);
#524=ORIENTED_EDGE('',*,*,#282,.T.);
#526=ORIENTED_EDGE('',*,*,#525,.F.);
#527=ORIENTED_EDGE('',*,*,#510,.F.);
#528=EDGE_LOOP('',(#523,#524,#526,#527));
#529=FACE_OUTER_BOUND('',#528,.F.);
#530=ADVANCED_FACE('',(#529),#521,.F.);
#531=CARTESIAN_POINT('',(0.E0,0.E0,2.E-1));
#532=DIRECTION('',(0.E0,0.E0,-1.E0));
#533=DIRECTION('',(0.E0,-1.E0,0.E0));
#534=AXIS2_PLACEMENT_3D('',#531,#532,#533);
#535=CYLINDRICAL_SURFACE('',#534,3.02E0);
#536=ORIENTED_EDGE('',*,*,#522,.F.);
#537=ORIENTED_EDGE('',*,*,#499,.T.);
#538=ORIENTED_EDGE('',*,*,#525,.T.);
#539=ORIENTED_EDGE('',*,*,#297,.F.);
#540=EDGE_LOOP('',(#536,#537,#538,#539));
#541=FACE_OUTER_BOUND('',#540,.F.);
#542=ADVANCED_FACE('',(#541),#535,.F.);
#543=CLOSED_SHELL('',(#286,#306,#325,#341,#355,#371,#387,#404,#417,#431,#444,
#459,#472,#488,#503,#516,#530,#542));
#544=MANIFOLD_SOLID_BREP('',#543);
#546=DIMENSIONAL_EXPONENTS(0.E0,0.E0,0.E0,0.E0,0.E0,0.E0,0.E0);
#548=PLANE_ANGLE_MEASURE_WITH_UNIT(PLANE_ANGLE_MEASURE(1.745329251994E-2),#547);
#549=(CONVERSION_BASED_UNIT('DEGREE',#548)NAMED_UNIT(*)PLANE_ANGLE_UNIT());
#551=UNCERTAINTY_MEASURE_WITH_UNIT(LENGTH_MEASURE(1.743489835033E-3),#545,
'closure',
'Maximum model space distance between geometric entities at asserted connectivities');
#552=(GEOMETRIC_REPRESENTATION_CONTEXT(3)GLOBAL_UNCERTAINTY_ASSIGNED_CONTEXT((
#551))GLOBAL_UNIT_ASSIGNED_CONTEXT((#545,#549,#550))REPRESENTATION_CONTEXT
('ID1','3'));
#554=APPLICATION_CONTEXT(
'CONFIGURATION CONTROLLED 3D DESIGNS OF MECHANICAL PARTS AND ASSEMBLIES');
#555=APPLICATION_PROTOCOL_DEFINITION('international standard',
'config_control_design',1994,#554);
#556=DESIGN_CONTEXT('',#554,'design');
#557=MECHANICAL_CONTEXT('',#554,'mechanical');
#558=PRODUCT('PBG__STEPVORLAGE','PBG__STEPVORLAGE','NOT SPECIFIED',(#557));
#559=PRODUCT_DEFINITION_FORMATION_WITH_SPECIFIED_SOURCE('1','LAST_VERSION',#558,
.MADE.);
#563=PRODUCT_CATEGORY('part','');
#564=PRODUCT_RELATED_PRODUCT_CATEGORY('detail','',(#558));
#565=PRODUCT_CATEGORY_RELATIONSHIP('','',#563,#564);
#566=SECURITY_CLASSIFICATION_LEVEL('unclassified');
#567=SECURITY_CLASSIFICATION('','',#566);
#568=CC_DESIGN_SECURITY_CLASSIFICATION(#567,(#559));
#569=APPROVAL_STATUS('approved');
#570=APPROVAL(#569,'');
#571=CC_DESIGN_APPROVAL(#570,(#567,#559,#560));
#572=CALENDAR_DATE(116,9,8);
#573=COORDINATED_UNIVERSAL_TIME_OFFSET(2,0,.AHEAD.);
#574=LOCAL_TIME(9,14,4.8E1,#573);
#575=DATE_AND_TIME(#572,#574);
#576=APPROVAL_DATE_TIME(#575,#570);
#577=DATE_TIME_ROLE('creation_date');
#578=CC_DESIGN_DATE_AND_TIME_ASSIGNMENT(#575,#577,(#560));
#579=DATE_TIME_ROLE('classification_date');
#580=CC_DESIGN_DATE_AND_TIME_ASSIGNMENT(#575,#579,(#567));
#581=PERSON('UNSPECIFIED','UNSPECIFIED',$,$,$,$);
#582=ORGANIZATION('UNSPECIFIED','UNSPECIFIED','UNSPECIFIED');
#583=PERSON_AND_ORGANIZATION(#581,#582);
#584=APPROVAL_ROLE('approver');
#585=APPROVAL_PERSON_ORGANIZATION(#583,#570,#584);
#586=PERSON_AND_ORGANIZATION_ROLE('creator');
#587=CC_DESIGN_PERSON_AND_ORGANIZATION_ASSIGNMENT(#583,#586,(#559,#560));
#588=PERSON_AND_ORGANIZATION_ROLE('design_supplier');
#589=CC_DESIGN_PERSON_AND_ORGANIZATION_ASSIGNMENT(#583,#588,(#559));
#590=PERSON_AND_ORGANIZATION_ROLE('classification_officer');
#591=CC_DESIGN_PERSON_AND_ORGANIZATION_ASSIGNMENT(#583,#590,(#567));
#592=PERSON_AND_ORGANIZATION_ROLE('design_owner');
#593=CC_DESIGN_PERSON_AND_ORGANIZATION_ASSIGNMENT(#583,#592,(#558));
#5=CIRCLE('',#4,3.02E0);
#13=B_SPLINE_CURVE_WITH_KNOTS('',3,(#6,#7,#8,#9,#10,#11,#12),.UNSPECIFIED.,.F.,
.F.,(4,1,1,1,4),(0.E0,2.5E-1,5.E-1,7.5E-1,1.E0),.UNSPECIFIED.);
#18=CIRCLE('',#17,2.E0);
#23=CIRCLE('',#22,3.02E0);
#28=CIRCLE('',#27,2.E0);
#36=B_SPLINE_CURVE_WITH_KNOTS('',3,(#29,#30,#31,#32,#33,#34,#35),.UNSPECIFIED.,
.F.,.F.,(4,1,1,1,4),(0.E0,2.5E-1,5.E-1,7.5E-1,1.E0),.UNSPECIFIED.);
#53=CIRCLE('',#52,5.02E0);
#58=CIRCLE('',#57,5.02E0);
#63=CIRCLE('',#62,5.02E0);
#68=CIRCLE('',#67,6.E0);
#77=CIRCLE('',#76,6.E0);
#94=CIRCLE('',#93,5.E0);
#110=B_SPLINE_CURVE_WITH_KNOTS('',3,(#95,#96,#97,#98,#99,#100,#101,#102,#103,
#104,#105,#106,#107,#108,#109),.UNSPECIFIED.,.F.,.F.,(4,1,1,1,1,1,1,1,1,1,1,1,
4),(0.E0,8.333333333333E-2,1.666666666667E-1,2.5E-1,3.333333333333E-1,
4.166666666667E-1,5.E-1,5.833333333333E-1,6.666666666667E-1,7.5E-1,
8.333333333333E-1,9.166666666667E-1,1.E0),.UNSPECIFIED.);
#115=CIRCLE('',#114,4.E0);
#120=CIRCLE('',#119,4.E0);
#143=B_SPLINE_CURVE_WITH_KNOTS('',3,(#129,#130,#131,#132,#133,#134,#135,#136,
#137,#138,#139,#140,#141,#142),.UNSPECIFIED.,.F.,.F.,(4,1,1,1,1,1,1,1,1,1,1,4),(
0.E0,9.090909090909E-2,1.818181818182E-1,2.727272727273E-1,3.636363636364E-1,
4.545454545455E-1,5.454545454545E-1,6.363636363636E-1,7.272727272727E-1,
8.181818181818E-1,9.090909090909E-1,1.E0),.UNSPECIFIED.);
#148=CIRCLE('',#147,5.E0);
#153=CIRCLE('',#152,1.E0);
#158=CIRCLE('',#157,4.E0);
#163=CIRCLE('',#162,4.E0);
#172=CIRCLE('',#171,4.E0);
#181=CIRCLE('',#180,3.781617859440E0);
#186=CIRCLE('',#185,3.781617859440E0);
#195=CIRCLE('',#194,3.37E0);
#204=CIRCLE('',#203,3.37E0);
#209=CIRCLE('',#208,3.02E0);
#218=CIRCLE('',#217,3.02E0);
#276=EDGE_CURVE('',#234,#248,#18,.T.);
#278=EDGE_CURVE('',#248,#250,#58,.T.);
#280=EDGE_CURVE('',#246,#250,#28,.T.);
#282=EDGE_CURVE('',#234,#246,#5,.T.);
#292=EDGE_CURVE('',#255,#269,#13,.T.);
#294=EDGE_CURVE('',#248,#255,#63,.T.);
#297=EDGE_CURVE('',#234,#246,#23,.T.);
#300=EDGE_CURVE('',#260,#250,#53,.T.);
#302=EDGE_CURVE('',#269,#260,#36,.T.);
#312=EDGE_CURVE('',#255,#256,#44,.T.);
#315=EDGE_CURVE('',#269,#270,#40,.T.);
#317=EDGE_CURVE('',#270,#263,#110,.T.);
#319=EDGE_CURVE('',#263,#264,#85,.T.);
#321=EDGE_CURVE('',#256,#264,#81,.T.);
#332=EDGE_CURVE('',#259,#256,#77,.T.);
#334=EDGE_CURVE('',#259,#260,#48,.T.);
#347=EDGE_CURVE('',#264,#267,#68,.T.);
#349=EDGE_CURVE('',#259,#267,#72,.T.);
#362=EDGE_CURVE('',#252,#263,#94,.T.);
#364=EDGE_CURVE('',#268,#252,#148,.T.);
#366=EDGE_CURVE('',#267,#268,#89,.T.);
#379=EDGE_CURVE('',#225,#270,#115,.T.);
#381=EDGE_CURVE('',#225,#237,#158,.T.);
#383=EDGE_CURVE('',#252,#237,#153,.T.);
#394=EDGE_CURVE('',#270,#237,#120,.T.);
#396=EDGE_CURVE('',#237,#238,#124,.T.);
#398=EDGE_CURVE('',#226,#238,#172,.T.);
#400=EDGE_CURVE('',#225,#226,#128,.T.);
#410=EDGE_CURVE('',#268,#270,#143,.T.);
#438=EDGE_CURVE('',#226,#238,#163,.T.);
#450=EDGE_CURVE('',#226,#228,#167,.T.);
#452=EDGE_CURVE('',#228,#240,#181,.T.);
#454=EDGE_CURVE('',#238,#240,#176,.T.);
#468=EDGE_CURVE('',#228,#240,#186,.T.);
#482=EDGE_CURVE('',#231,#243,#195,.T.);
#484=EDGE_CURVE('',#231,#243,#204,.T.);
#494=EDGE_CURVE('',#231,#232,#190,.T.);
#497=EDGE_CURVE('',#243,#244,#199,.T.);
#499=EDGE_CURVE('',#232,#244,#218,.T.);
#510=EDGE_CURVE('',#232,#244,#209,.T.);
#522=EDGE_CURVE('',#232,#234,#213,.T.);
#525=EDGE_CURVE('',#244,#246,#222,.T.);
#545=(LENGTH_UNIT()NAMED_UNIT(*)SI_UNIT(.MILLI.,.METRE.));
#547=(NAMED_UNIT(*)PLANE_ANGLE_UNIT()SI_UNIT($,.RADIAN.));
#550=(NAMED_UNIT(*)SI_UNIT($,.STERADIAN.)SOLID_ANGLE_UNIT());
#553=ADVANCED_BREP_SHAPE_REPRESENTATION('',(#544),#552);
#560=PRODUCT_DEFINITION('design','',#559,#556);
#561=PRODUCT_DEFINITION_SHAPE('','SHAPE FOR PBG__STEPVORLAGE.',#560);
#562=SHAPE_DEFINITION_REPRESENTATION(#561,#553);
ENDSEC;
END-ISO-10303-21;
