ISO-10303-21;
HEADER;
FILE_DESCRIPTION((''),'2;1');
FILE_NAME('PBG__STEPVORLAGE','2016-08-09T',('deusss58'),(''),
'PRO/ENGINEER BY PARAMETRIC TECHNOLOGY CORPORATION, 2014430',
'PRO/ENGINEER BY PARAMETRIC TECHNOLOGY CORPORATION, 2014430','');
FILE_SCHEMA(('CONFIG_CONTROL_DESIGN'));
ENDSEC;
DATA;
#1=CARTESIAN_POINT('',(0.E0,0.E0,-2.E0));
#2=DIRECTION('',(0.E0,0.E0,-1.E0));
#3=DIRECTION('',(0.E0,-1.E0,0.E0));
#4=AXIS2_PLACEMENT_3D('',#1,#2,#3);
#6=CARTESIAN_POINT('',(6.001845856931E0,-4.671683953778E-1,0.E0));
#7=CARTESIAN_POINT('',(5.917932499430E0,-4.280389541534E-1,0.E0));
#8=CARTESIAN_POINT('',(5.748187051275E0,-3.488853517421E-1,-1.097950337708E-2));
#9=CARTESIAN_POINT('',(5.479764906725E0,-2.237180501198E-1,-6.625281339387E-2));
#10=CARTESIAN_POINT('',(5.221643792337E0,-1.033541977494E-1,
-1.595214067839E-1));
#11=CARTESIAN_POINT('',(5.071464420883E0,-3.332440674346E-2,
-2.372797271963E-1));
#12=CARTESIAN_POINT('',(5.E0,0.E0,-2.796511981578E-1));
#14=CARTESIAN_POINT('',(0.E0,-6.02E0,-2.E0));
#15=DIRECTION('',(1.E0,0.E0,0.E0));
#16=DIRECTION('',(0.E0,1.E0,0.E0));
#17=AXIS2_PLACEMENT_3D('',#14,#15,#16);
#19=CARTESIAN_POINT('',(0.E0,0.E0,-2.E0));
#20=DIRECTION('',(0.E0,0.E0,1.E0));
#21=DIRECTION('',(0.E0,-1.E0,0.E0));
#22=AXIS2_PLACEMENT_3D('',#19,#20,#21);
#24=CARTESIAN_POINT('',(0.E0,6.02E0,-2.E0));
#25=DIRECTION('',(-1.E0,0.E0,0.E0));
#26=DIRECTION('',(0.E0,-1.E0,0.E0));
#27=AXIS2_PLACEMENT_3D('',#24,#25,#26);
#29=CARTESIAN_POINT('',(5.E0,0.E0,-2.796511981578E-1));
#30=CARTESIAN_POINT('',(5.071780785939E0,3.347193019163E-2,-2.370921533994E-1));
#31=CARTESIAN_POINT('',(5.222374999540E0,1.036951652678E-1,-1.592029979326E-1));
#32=CARTESIAN_POINT('',(5.479939329723E0,2.237993848996E-1,-6.625322118610E-2));
#33=CARTESIAN_POINT('',(5.747514975351E0,3.485719575915E-1,-1.108283185412E-2));
#34=CARTESIAN_POINT('',(5.917617137164E0,4.278918983137E-1,0.E0));
#35=CARTESIAN_POINT('',(6.001845856931E0,4.671683953778E-1,0.E0));
#37=DIRECTION('',(0.E0,0.E0,-1.E0));
#38=VECTOR('',#37,1.720348801842E0);
#39=CARTESIAN_POINT('',(5.E0,0.E0,-2.796511981578E-1));
#40=LINE('',#39,#38);
#41=DIRECTION('',(9.063077870366E-1,-4.226182617407E-1,0.E0));
#42=VECTOR('',#41,1.559215248828E0);
#43=CARTESIAN_POINT('',(6.001845856931E0,-4.671683953778E-1,0.E0));
#44=LINE('',#43,#42);
#45=DIRECTION('',(-9.063077870366E-1,-4.226182617407E-1,0.E0));
#46=VECTOR('',#45,1.559215248828E0);
#47=CARTESIAN_POINT('',(7.414974778610E0,1.126121233517E0,0.E0));
#48=LINE('',#47,#46);
#49=CARTESIAN_POINT('',(0.E0,0.E0,0.E0));
#50=DIRECTION('',(0.E0,0.E0,1.E0));
#51=DIRECTION('',(9.969843616164E-1,7.760272348468E-2,0.E0));
#52=AXIS2_PLACEMENT_3D('',#49,#50,#51);
#54=CARTESIAN_POINT('',(0.E0,0.E0,0.E0));
#55=DIRECTION('',(0.E0,0.E0,-1.E0));
#56=DIRECTION('',(0.E0,-1.E0,0.E0));
#57=AXIS2_PLACEMENT_3D('',#54,#55,#56);
#59=CARTESIAN_POINT('',(0.E0,0.E0,0.E0));
#60=DIRECTION('',(0.E0,0.E0,1.E0));
#61=DIRECTION('',(0.E0,-1.E0,0.E0));
#62=AXIS2_PLACEMENT_3D('',#59,#60,#61);
#64=CARTESIAN_POINT('',(0.E0,0.E0,-1.E0));
#65=DIRECTION('',(0.E0,0.E0,-1.E0));
#66=DIRECTION('',(9.886633038147E-1,-1.501494978023E-1,0.E0));
#67=AXIS2_PLACEMENT_3D('',#64,#65,#66);
#69=DIRECTION('',(0.E0,0.E0,-1.E0));
#70=VECTOR('',#69,1.E0);
#71=CARTESIAN_POINT('',(7.414974778610E0,1.126121233517E0,0.E0));
#72=LINE('',#71,#70);
#73=CARTESIAN_POINT('',(0.E0,0.E0,0.E0));
#74=DIRECTION('',(0.E0,0.E0,1.E0));
#75=DIRECTION('',(9.886633038147E-1,1.501494978023E-1,0.E0));
#76=AXIS2_PLACEMENT_3D('',#73,#74,#75);
#78=DIRECTION('',(0.E0,0.E0,-1.E0));
#79=VECTOR('',#78,1.E0);
#80=CARTESIAN_POINT('',(7.414974778610E0,-1.126121233517E0,0.E0));
#81=LINE('',#80,#79);
#82=DIRECTION('',(9.063077870367E-1,-4.226182617407E-1,0.E0));
#83=VECTOR('',#82,1.580579308482E0);
#84=CARTESIAN_POINT('',(5.982483443304E0,-4.581395536231E-1,-1.E0));
#85=LINE('',#84,#83);
#86=DIRECTION('',(-9.063077870366E-1,-4.226182617407E-1,0.E0));
#87=VECTOR('',#86,1.580579308482E0);
#88=CARTESIAN_POINT('',(7.414974778610E0,1.126121233517E0,-1.E0));
#89=LINE('',#88,#87);
#90=CARTESIAN_POINT('',(0.E0,0.E0,-1.E0));
#91=DIRECTION('',(0.E0,0.E0,1.E0));
#92=DIRECTION('',(0.E0,1.E0,0.E0));
#93=AXIS2_PLACEMENT_3D('',#90,#91,#92);
#95=CARTESIAN_POINT('',(5.E0,0.E0,-2.E0));
#96=CARTESIAN_POINT('',(5.E0,0.E0,-1.932400737E0));
#97=CARTESIAN_POINT('',(5.013458977690E0,-6.276024367760E-3,-1.801491733669E0));
#98=CARTESIAN_POINT('',(5.070132176887E0,-3.270317116544E-2,-1.615626227644E0));
#99=CARTESIAN_POINT('',(5.158941916944E0,-7.411583307292E-2,-1.447306193748E0));
#100=CARTESIAN_POINT('',(5.278395802184E0,-1.298180945564E-1,
-1.297149764573E0));
#101=CARTESIAN_POINT('',(5.426566273596E0,-1.989111200883E-1,
-1.170379814113E0));
#102=CARTESIAN_POINT('',(5.598950455195E0,-2.792951841127E-1,
-1.073611870043E0));
#103=CARTESIAN_POINT('',(5.787898973752E0,-3.674033253131E-1,
-1.013507469369E0));
#104=CARTESIAN_POINT('',(5.916693921485E0,-4.274613957725E-1,-1.E0));
#105=CARTESIAN_POINT('',(5.982483443304E0,-4.581395536231E-1,-1.E0));
#107=CARTESIAN_POINT('',(0.E0,0.E0,-2.E0));
#108=DIRECTION('',(0.E0,0.E0,1.E0));
#109=DIRECTION('',(0.E0,-1.E0,0.E0));
#110=AXIS2_PLACEMENT_3D('',#107,#108,#109);
#112=CARTESIAN_POINT('',(0.E0,0.E0,-2.E0));
#113=DIRECTION('',(0.E0,0.E0,1.E0));
#114=DIRECTION('',(1.E0,0.E0,0.E0));
#115=AXIS2_PLACEMENT_3D('',#112,#113,#114);
#117=DIRECTION('',(0.E0,0.E0,-1.E0));
#118=VECTOR('',#117,6.9E0);
#119=CARTESIAN_POINT('',(0.E0,5.E0,-2.E0));
#120=LINE('',#119,#118);
#121=DIRECTION('',(0.E0,0.E0,-1.E0));
#122=VECTOR('',#121,6.9E0);
#123=CARTESIAN_POINT('',(0.E0,-5.E0,-2.E0));
#124=LINE('',#123,#122);
#125=CARTESIAN_POINT('',(5.982483443304E0,4.581395536231E-1,-1.E0));
#126=CARTESIAN_POINT('',(5.916693921485E0,4.274613957725E-1,-1.E0));
#127=CARTESIAN_POINT('',(5.787898973752E0,3.674033253131E-1,-1.013507469369E0));
#128=CARTESIAN_POINT('',(5.598950455195E0,2.792951841127E-1,-1.073611870043E0));
#129=CARTESIAN_POINT('',(5.426566273596E0,1.989111200883E-1,-1.170379814113E0));
#130=CARTESIAN_POINT('',(5.278395802184E0,1.298180945564E-1,-1.297149764573E0));
#131=CARTESIAN_POINT('',(5.158941916944E0,7.411583307292E-2,-1.447306193748E0));
#132=CARTESIAN_POINT('',(5.070132176887E0,3.270317116544E-2,-1.615626227644E0));
#133=CARTESIAN_POINT('',(5.013458977690E0,6.276024367760E-3,-1.801491733669E0));
#134=CARTESIAN_POINT('',(5.E0,0.E0,-1.932400737E0));
#135=CARTESIAN_POINT('',(5.E0,0.E0,-2.E0));
#137=CARTESIAN_POINT('',(0.E0,0.E0,-1.E0));
#138=DIRECTION('',(0.E0,0.E0,1.E0));
#139=DIRECTION('',(9.970805738840E-1,7.635659227052E-2,0.E0));
#140=AXIS2_PLACEMENT_3D('',#137,#138,#139);
#142=CARTESIAN_POINT('',(0.E0,6.E0,-2.E0));
#143=DIRECTION('',(1.E0,0.E0,0.E0));
#144=DIRECTION('',(0.E0,0.E0,1.E0));
#145=AXIS2_PLACEMENT_3D('',#142,#143,#144);
#147=CARTESIAN_POINT('',(0.E0,0.E0,-2.E0));
#148=DIRECTION('',(0.E0,0.E0,-1.E0));
#149=DIRECTION('',(0.E0,-1.E0,0.E0));
#150=AXIS2_PLACEMENT_3D('',#147,#148,#149);
#152=CARTESIAN_POINT('',(0.E0,0.E0,-8.9E0));
#153=DIRECTION('',(0.E0,0.E0,-1.E0));
#154=DIRECTION('',(0.E0,-1.E0,0.E0));
#155=AXIS2_PLACEMENT_3D('',#152,#153,#154);
#157=DIRECTION('',(0.E0,3.420201433257E-1,-9.396926207859E-1));
#158=VECTOR('',#157,6.385066634855E-1);
#159=CARTESIAN_POINT('',(0.E0,-5.E0,-8.9E0));
#160=LINE('',#159,#158);
#161=CARTESIAN_POINT('',(0.E0,0.E0,-8.9E0));
#162=DIRECTION('',(0.E0,0.E0,1.E0));
#163=DIRECTION('',(0.E0,-1.E0,0.E0));
#164=AXIS2_PLACEMENT_3D('',#161,#162,#163);
#166=DIRECTION('',(0.E0,-3.420201433257E-1,-9.396926207859E-1));
#167=VECTOR('',#166,6.385066634855E-1);
#168=CARTESIAN_POINT('',(0.E0,5.E0,-8.9E0));
#169=LINE('',#168,#167);
#170=CARTESIAN_POINT('',(0.E0,0.E0,-9.5E0));
#171=DIRECTION('',(0.E0,0.E0,-1.E0));
#172=DIRECTION('',(0.E0,-1.E0,0.E0));
#173=AXIS2_PLACEMENT_3D('',#170,#171,#172);
#175=CARTESIAN_POINT('',(0.E0,0.E0,-9.5E0));
#176=DIRECTION('',(0.E0,0.E0,1.E0));
#177=DIRECTION('',(0.E0,-1.E0,0.E0));
#178=AXIS2_PLACEMENT_3D('',#175,#176,#177);
#180=DIRECTION('',(0.E0,7.071067811865E-1,7.071067811865E-1));
#181=VECTOR('',#180,4.949747468306E-1);
#182=CARTESIAN_POINT('',(0.E0,-4.37E0,-9.5E0));
#183=LINE('',#182,#181);
#184=CARTESIAN_POINT('',(0.E0,0.E0,-9.5E0));
#185=DIRECTION('',(0.E0,0.E0,1.E0));
#186=DIRECTION('',(0.E0,-1.E0,0.E0));
#187=AXIS2_PLACEMENT_3D('',#184,#185,#186);
#189=DIRECTION('',(0.E0,-7.071067811865E-1,7.071067811865E-1));
#190=VECTOR('',#189,4.949747468306E-1);
#191=CARTESIAN_POINT('',(0.E0,4.37E0,-9.5E0));
#192=LINE('',#191,#190);
#193=CARTESIAN_POINT('',(0.E0,0.E0,-9.5E0));
#194=DIRECTION('',(0.E0,0.E0,-1.E0));
#195=DIRECTION('',(0.E0,-1.E0,0.E0));
#196=AXIS2_PLACEMENT_3D('',#193,#194,#195);
#198=CARTESIAN_POINT('',(0.E0,0.E0,-9.15E0));
#199=DIRECTION('',(0.E0,0.E0,-1.E0));
#200=DIRECTION('',(0.E0,-1.E0,0.E0));
#201=AXIS2_PLACEMENT_3D('',#198,#199,#200);
#203=DIRECTION('',(0.E0,0.E0,1.E0));
#204=VECTOR('',#203,7.15E0);
#205=CARTESIAN_POINT('',(0.E0,-4.02E0,-9.15E0));
#206=LINE('',#205,#204);
#207=CARTESIAN_POINT('',(0.E0,0.E0,-9.15E0));
#208=DIRECTION('',(0.E0,0.E0,1.E0));
#209=DIRECTION('',(0.E0,-1.E0,0.E0));
#210=AXIS2_PLACEMENT_3D('',#207,#208,#209);
#212=DIRECTION('',(0.E0,0.E0,1.E0));
#213=VECTOR('',#212,7.15E0);
#214=CARTESIAN_POINT('',(0.E0,4.02E0,-9.15E0));
#215=LINE('',#214,#213);
#216=CARTESIAN_POINT('',(0.E0,-5.E0,-2.E0));
#217=CARTESIAN_POINT('',(0.E0,-5.E0,-8.9E0));
#218=VERTEX_POINT('',#216);
#219=VERTEX_POINT('',#217);
#220=CARTESIAN_POINT('',(0.E0,-4.781617859440E0,-9.5E0));
#221=VERTEX_POINT('',#220);
#222=CARTESIAN_POINT('',(0.E0,-4.37E0,-9.5E0));
#223=CARTESIAN_POINT('',(0.E0,-4.02E0,-9.15E0));
#224=VERTEX_POINT('',#222);
#225=VERTEX_POINT('',#223);
#226=CARTESIAN_POINT('',(0.E0,-4.02E0,-2.E0));
#227=VERTEX_POINT('',#226);
#228=CARTESIAN_POINT('',(0.E0,5.E0,-2.E0));
#229=CARTESIAN_POINT('',(0.E0,5.E0,-8.9E0));
#230=VERTEX_POINT('',#228);
#231=VERTEX_POINT('',#229);
#232=CARTESIAN_POINT('',(0.E0,4.781617859440E0,-9.5E0));
#233=VERTEX_POINT('',#232);
#234=CARTESIAN_POINT('',(0.E0,4.37E0,-9.5E0));
#235=CARTESIAN_POINT('',(0.E0,4.02E0,-9.15E0));
#236=VERTEX_POINT('',#234);
#237=VERTEX_POINT('',#235);
#238=CARTESIAN_POINT('',(0.E0,4.02E0,-2.E0));
#239=VERTEX_POINT('',#238);
#240=CARTESIAN_POINT('',(0.E0,-6.02E0,0.E0));
#241=VERTEX_POINT('',#240);
#242=CARTESIAN_POINT('',(0.E0,6.02E0,0.E0));
#243=VERTEX_POINT('',#242);
#244=CARTESIAN_POINT('',(0.E0,6.E0,-1.E0));
#245=VERTEX_POINT('',#244);
#246=CARTESIAN_POINT('',(6.001845856931E0,-4.671683953778E-1,0.E0));
#247=CARTESIAN_POINT('',(7.414974778610E0,-1.126121233517E0,0.E0));
#248=VERTEX_POINT('',#246);
#249=VERTEX_POINT('',#247);
#250=CARTESIAN_POINT('',(7.414974778610E0,1.126121233517E0,0.E0));
#251=CARTESIAN_POINT('',(6.001845856931E0,4.671683953778E-1,0.E0));
#252=VERTEX_POINT('',#250);
#253=VERTEX_POINT('',#251);
#254=CARTESIAN_POINT('',(5.982483443304E0,-4.581395536231E-1,-1.E0));
#255=CARTESIAN_POINT('',(7.414974778610E0,-1.126121233517E0,-1.E0));
#256=VERTEX_POINT('',#254);
#257=VERTEX_POINT('',#255);
#258=CARTESIAN_POINT('',(7.414974778610E0,1.126121233517E0,-1.E0));
#259=CARTESIAN_POINT('',(5.982483443304E0,4.581395536231E-1,-1.E0));
#260=VERTEX_POINT('',#258);
#261=VERTEX_POINT('',#259);
#262=VERTEX_POINT('',#12);
#263=VERTEX_POINT('',#95);
#264=CARTESIAN_POINT('',(0.E0,0.E0,-2.E0));
#265=DIRECTION('',(0.E0,0.E0,-1.E0));
#266=DIRECTION('',(0.E0,-1.E0,0.E0));
#267=AXIS2_PLACEMENT_3D('',#264,#265,#266);
#268=TOROIDAL_SURFACE('',#267,6.02E0,2.E0);
#270=ORIENTED_EDGE('',*,*,#269,.T.);
#272=ORIENTED_EDGE('',*,*,#271,.T.);
#274=ORIENTED_EDGE('',*,*,#273,.F.);
#276=ORIENTED_EDGE('',*,*,#275,.F.);
#277=EDGE_LOOP('',(#270,#272,#274,#276));
#278=FACE_OUTER_BOUND('',#277,.F.);
#279=ADVANCED_FACE('',(#278),#268,.T.);
#280=CARTESIAN_POINT('',(0.E0,0.E0,-2.E0));
#281=DIRECTION('',(0.E0,0.E0,-1.E0));
#282=DIRECTION('',(0.E0,-1.E0,0.E0));
#283=AXIS2_PLACEMENT_3D('',#280,#281,#282);
#284=TOROIDAL_SURFACE('',#283,6.02E0,2.E0);
#286=ORIENTED_EDGE('',*,*,#285,.F.);
#288=ORIENTED_EDGE('',*,*,#287,.F.);
#289=ORIENTED_EDGE('',*,*,#269,.F.);
#291=ORIENTED_EDGE('',*,*,#290,.T.);
#292=ORIENTED_EDGE('',*,*,#273,.T.);
#294=ORIENTED_EDGE('',*,*,#293,.F.);
#296=ORIENTED_EDGE('',*,*,#295,.F.);
#297=EDGE_LOOP('',(#286,#288,#289,#291,#292,#294,#296));
#298=FACE_OUTER_BOUND('',#297,.F.);
#299=ADVANCED_FACE('',(#298),#284,.T.);
#300=CARTESIAN_POINT('',(5.E0,0.E0,0.E0));
#301=DIRECTION('',(-4.226182617407E-1,-9.063077870367E-1,0.E0));
#302=DIRECTION('',(9.063077870367E-1,-4.226182617407E-1,0.E0));
#303=AXIS2_PLACEMENT_3D('',#300,#301,#302);
#304=PLANE('',#303);
#306=ORIENTED_EDGE('',*,*,#305,.F.);
#307=ORIENTED_EDGE('',*,*,#285,.T.);
#309=ORIENTED_EDGE('',*,*,#308,.T.);
#311=ORIENTED_EDGE('',*,*,#310,.T.);
#313=ORIENTED_EDGE('',*,*,#312,.T.);
#315=ORIENTED_EDGE('',*,*,#314,.F.);
#316=EDGE_LOOP('',(#306,#307,#309,#311,#313,#315));
#317=FACE_OUTER_BOUND('',#316,.F.);
#318=ADVANCED_FACE('',(#317),#304,.F.);
#319=CARTESIAN_POINT('',(0.E0,0.E0,0.E0));
#320=DIRECTION('',(0.E0,0.E0,-1.E0));
#321=DIRECTION('',(0.E0,-1.E0,0.E0));
#322=AXIS2_PLACEMENT_3D('',#319,#320,#321);
#323=PLANE('',#322);
#324=ORIENTED_EDGE('',*,*,#305,.T.);
#326=ORIENTED_EDGE('',*,*,#325,.F.);
#328=ORIENTED_EDGE('',*,*,#327,.T.);
#329=ORIENTED_EDGE('',*,*,#293,.T.);
#330=ORIENTED_EDGE('',*,*,#271,.F.);
#331=ORIENTED_EDGE('',*,*,#287,.T.);
#332=EDGE_LOOP('',(#324,#326,#328,#329,#330,#331));
#333=FACE_OUTER_BOUND('',#332,.F.);
#334=ADVANCED_FACE('',(#333),#323,.F.);
#335=CARTESIAN_POINT('',(0.E0,0.E0,4.75E-1));
#336=DIRECTION('',(0.E0,0.E0,-1.E0));
#337=DIRECTION('',(0.E0,-1.E0,0.E0));
#338=AXIS2_PLACEMENT_3D('',#335,#336,#337);
#339=CYLINDRICAL_SURFACE('',#338,7.5E0);
#341=ORIENTED_EDGE('',*,*,#340,.T.);
#343=ORIENTED_EDGE('',*,*,#342,.F.);
#344=ORIENTED_EDGE('',*,*,#325,.T.);
#345=ORIENTED_EDGE('',*,*,#314,.T.);
#346=EDGE_LOOP('',(#341,#343,#344,#345));
#347=FACE_OUTER_BOUND('',#346,.F.);
#348=ADVANCED_FACE('',(#347),#339,.T.);
#349=CARTESIAN_POINT('',(0.E0,0.E0,-1.E0));
#350=DIRECTION('',(0.E0,0.E0,-1.E0));
#351=DIRECTION('',(0.E0,-1.E0,0.E0));
#352=AXIS2_PLACEMENT_3D('',#349,#350,#351);
#353=PLANE('',#352);
#354=ORIENTED_EDGE('',*,*,#312,.F.);
#356=ORIENTED_EDGE('',*,*,#355,.F.);
#358=ORIENTED_EDGE('',*,*,#357,.F.);
#360=ORIENTED_EDGE('',*,*,#359,.F.);
#361=ORIENTED_EDGE('',*,*,#340,.F.);
#362=EDGE_LOOP('',(#354,#356,#358,#360,#361));
#363=FACE_OUTER_BOUND('',#362,.F.);
#364=ADVANCED_FACE('',(#363),#353,.T.);
#365=CARTESIAN_POINT('',(0.E0,0.E0,-2.E0));
#366=DIRECTION('',(0.E0,0.E0,-1.E0));
#367=DIRECTION('',(0.E0,-1.E0,0.E0));
#368=AXIS2_PLACEMENT_3D('',#365,#366,#367);
#369=TOROIDAL_SURFACE('',#368,6.E0,1.E0);
#370=ORIENTED_EDGE('',*,*,#355,.T.);
#371=ORIENTED_EDGE('',*,*,#310,.F.);
#373=ORIENTED_EDGE('',*,*,#372,.F.);
#375=ORIENTED_EDGE('',*,*,#374,.T.);
#377=ORIENTED_EDGE('',*,*,#376,.F.);
#378=EDGE_LOOP('',(#370,#371,#373,#375,#377));
#379=FACE_OUTER_BOUND('',#378,.F.);
#380=ADVANCED_FACE('',(#379),#369,.F.);
#381=CARTESIAN_POINT('',(0.E0,0.E0,4.75E-1));
#382=DIRECTION('',(0.E0,0.E0,-1.E0));
#383=DIRECTION('',(0.E0,-1.E0,0.E0));
#384=AXIS2_PLACEMENT_3D('',#381,#382,#383);
#385=CYLINDRICAL_SURFACE('',#384,5.E0);
#386=ORIENTED_EDGE('',*,*,#372,.T.);
#388=ORIENTED_EDGE('',*,*,#387,.T.);
#390=ORIENTED_EDGE('',*,*,#389,.T.);
#392=ORIENTED_EDGE('',*,*,#391,.F.);
#394=ORIENTED_EDGE('',*,*,#393,.F.);
#395=EDGE_LOOP('',(#386,#388,#390,#392,#394));
#396=FACE_OUTER_BOUND('',#395,.F.);
#397=ADVANCED_FACE('',(#396),#385,.T.);
#398=CARTESIAN_POINT('',(0.E0,0.E0,-2.E0));
#399=DIRECTION('',(0.E0,0.E0,-1.E0));
#400=DIRECTION('',(0.E0,-1.E0,0.E0));
#401=AXIS2_PLACEMENT_3D('',#398,#399,#400);
#402=TOROIDAL_SURFACE('',#401,6.E0,1.E0);
#404=ORIENTED_EDGE('',*,*,#403,.F.);
#405=ORIENTED_EDGE('',*,*,#357,.T.);
#406=ORIENTED_EDGE('',*,*,#376,.T.);
#407=ORIENTED_EDGE('',*,*,#387,.F.);
#408=EDGE_LOOP('',(#404,#405,#406,#407));
#409=FACE_OUTER_BOUND('',#408,.F.);
#410=ADVANCED_FACE('',(#409),#402,.F.);
#411=CARTESIAN_POINT('',(7.414974778610E0,1.126121233517E0,0.E0));
#412=DIRECTION('',(-4.226182617407E-1,9.063077870366E-1,0.E0));
#413=DIRECTION('',(-9.063077870366E-1,-4.226182617407E-1,0.E0));
#414=AXIS2_PLACEMENT_3D('',#411,#412,#413);
#415=PLANE('',#414);
#416=ORIENTED_EDGE('',*,*,#327,.F.);
#417=ORIENTED_EDGE('',*,*,#342,.T.);
#418=ORIENTED_EDGE('',*,*,#359,.T.);
#419=ORIENTED_EDGE('',*,*,#403,.T.);
#420=ORIENTED_EDGE('',*,*,#308,.F.);
#421=ORIENTED_EDGE('',*,*,#295,.T.);
#422=EDGE_LOOP('',(#416,#417,#418,#419,#420,#421));
#423=FACE_OUTER_BOUND('',#422,.F.);
#424=ADVANCED_FACE('',(#423),#415,.F.);
#425=CARTESIAN_POINT('',(0.E0,0.E0,4.75E-1));
#426=DIRECTION('',(0.E0,0.E0,-1.E0));
#427=DIRECTION('',(0.E0,-1.E0,0.E0));
#428=AXIS2_PLACEMENT_3D('',#425,#426,#427);
#429=CYLINDRICAL_SURFACE('',#428,5.E0);
#430=ORIENTED_EDGE('',*,*,#393,.T.);
#432=ORIENTED_EDGE('',*,*,#431,.T.);
#433=ORIENTED_EDGE('',*,*,#389,.F.);
#434=ORIENTED_EDGE('',*,*,#374,.F.);
#435=EDGE_LOOP('',(#430,#432,#433,#434));
#436=FACE_OUTER_BOUND('',#435,.F.);
#437=ADVANCED_FACE('',(#436),#429,.T.);
#438=CARTESIAN_POINT('',(0.E0,0.E0,-9.2E0));
#439=DIRECTION('',(0.E0,0.E0,1.E0));
#440=DIRECTION('',(0.E0,1.E0,0.E0));
#441=AXIS2_PLACEMENT_3D('',#438,#439,#440);
#442=CONICAL_SURFACE('',#441,4.890808929720E0,2.E1);
#444=ORIENTED_EDGE('',*,*,#443,.T.);
#446=ORIENTED_EDGE('',*,*,#445,.T.);
#448=ORIENTED_EDGE('',*,*,#447,.F.);
#449=ORIENTED_EDGE('',*,*,#431,.F.);
#450=EDGE_LOOP('',(#444,#446,#448,#449));
#451=FACE_OUTER_BOUND('',#450,.F.);
#452=ADVANCED_FACE('',(#451),#442,.T.);
#453=CARTESIAN_POINT('',(0.E0,0.E0,-9.2E0));
#454=DIRECTION('',(0.E0,0.E0,1.E0));
#455=DIRECTION('',(0.E0,1.E0,0.E0));
#456=AXIS2_PLACEMENT_3D('',#453,#454,#455);
#457=CONICAL_SURFACE('',#456,4.890808929720E0,2.E1);
#458=ORIENTED_EDGE('',*,*,#443,.F.);
#459=ORIENTED_EDGE('',*,*,#391,.T.);
#460=ORIENTED_EDGE('',*,*,#447,.T.);
#462=ORIENTED_EDGE('',*,*,#461,.F.);
#463=EDGE_LOOP('',(#458,#459,#460,#462));
#464=FACE_OUTER_BOUND('',#463,.F.);
#465=ADVANCED_FACE('',(#464),#457,.T.);
#466=CARTESIAN_POINT('',(0.E0,0.E0,-9.5E0));
#467=DIRECTION('',(0.E0,0.E0,-1.E0));
#468=DIRECTION('',(0.E0,-1.E0,0.E0));
#469=AXIS2_PLACEMENT_3D('',#466,#467,#468);
#470=PLANE('',#469);
#471=ORIENTED_EDGE('',*,*,#445,.F.);
#472=ORIENTED_EDGE('',*,*,#461,.T.);
#473=EDGE_LOOP('',(#471,#472));
#474=FACE_OUTER_BOUND('',#473,.F.);
#476=ORIENTED_EDGE('',*,*,#475,.F.);
#478=ORIENTED_EDGE('',*,*,#477,.T.);
#479=EDGE_LOOP('',(#476,#478));
#480=FACE_BOUND('',#479,.F.);
#481=ADVANCED_FACE('',(#474,#480),#470,.T.);
#482=CARTESIAN_POINT('',(0.E0,0.E0,-9.325E0));
#483=DIRECTION('',(0.E0,0.E0,-1.E0));
#484=DIRECTION('',(0.E0,-1.E0,0.E0));
#485=AXIS2_PLACEMENT_3D('',#482,#483,#484);
#486=CONICAL_SURFACE('',#485,4.195E0,4.5E1);
#488=ORIENTED_EDGE('',*,*,#487,.F.);
#489=ORIENTED_EDGE('',*,*,#475,.T.);
#491=ORIENTED_EDGE('',*,*,#490,.T.);
#493=ORIENTED_EDGE('',*,*,#492,.F.);
#494=EDGE_LOOP('',(#488,#489,#491,#493));
#495=FACE_OUTER_BOUND('',#494,.F.);
#496=ADVANCED_FACE('',(#495),#486,.F.);
#497=CARTESIAN_POINT('',(0.E0,0.E0,-9.325E0));
#498=DIRECTION('',(0.E0,0.E0,-1.E0));
#499=DIRECTION('',(0.E0,-1.E0,0.E0));
#500=AXIS2_PLACEMENT_3D('',#497,#498,#499);
#501=CONICAL_SURFACE('',#500,4.195E0,4.5E1);
#502=ORIENTED_EDGE('',*,*,#487,.T.);
#504=ORIENTED_EDGE('',*,*,#503,.T.);
#505=ORIENTED_EDGE('',*,*,#490,.F.);
#506=ORIENTED_EDGE('',*,*,#477,.F.);
#507=EDGE_LOOP('',(#502,#504,#505,#506));
#508=FACE_OUTER_BOUND('',#507,.F.);
#509=ADVANCED_FACE('',(#508),#501,.F.);
#510=CARTESIAN_POINT('',(0.E0,0.E0,4.75E-1));
#511=DIRECTION('',(0.E0,0.E0,-1.E0));
#512=DIRECTION('',(0.E0,-1.E0,0.E0));
#513=AXIS2_PLACEMENT_3D('',#510,#511,#512);
#514=CYLINDRICAL_SURFACE('',#513,4.02E0);
#516=ORIENTED_EDGE('',*,*,#515,.T.);
#517=ORIENTED_EDGE('',*,*,#275,.T.);
#519=ORIENTED_EDGE('',*,*,#518,.F.);
#520=ORIENTED_EDGE('',*,*,#503,.F.);
#521=EDGE_LOOP('',(#516,#517,#519,#520));
#522=FACE_OUTER_BOUND('',#521,.F.);
#523=ADVANCED_FACE('',(#522),#514,.F.);
#524=CARTESIAN_POINT('',(0.E0,0.E0,4.75E-1));
#525=DIRECTION('',(0.E0,0.E0,-1.E0));
#526=DIRECTION('',(0.E0,-1.E0,0.E0));
#527=AXIS2_PLACEMENT_3D('',#524,#525,#526);
#528=CYLINDRICAL_SURFACE('',#527,4.02E0);
#529=ORIENTED_EDGE('',*,*,#515,.F.);
#530=ORIENTED_EDGE('',*,*,#492,.T.);
#531=ORIENTED_EDGE('',*,*,#518,.T.);
#532=ORIENTED_EDGE('',*,*,#290,.F.);
#533=EDGE_LOOP('',(#529,#530,#531,#532));
#534=FACE_OUTER_BOUND('',#533,.F.);
#535=ADVANCED_FACE('',(#534),#528,.F.);
#536=CLOSED_SHELL('',(#279,#299,#318,#334,#348,#364,#380,#397,#410,#424,#437,
#452,#465,#481,#496,#509,#523,#535));
#537=MANIFOLD_SOLID_BREP('',#536);
#539=DIMENSIONAL_EXPONENTS(0.E0,0.E0,0.E0,0.E0,0.E0,0.E0,0.E0);
#541=PLANE_ANGLE_MEASURE_WITH_UNIT(PLANE_ANGLE_MEASURE(1.745329251994E-2),#540);
#542=(CONVERSION_BASED_UNIT('DEGREE',#541)NAMED_UNIT(*)PLANE_ANGLE_UNIT());
#544=UNCERTAINTY_MEASURE_WITH_UNIT(LENGTH_MEASURE(2.324720860320E-3),#538,
'closure',
'Maximum model space distance between geometric entities at asserted connectivities');
#545=(GEOMETRIC_REPRESENTATION_CONTEXT(3)GLOBAL_UNCERTAINTY_ASSIGNED_CONTEXT((
#544))GLOBAL_UNIT_ASSIGNED_CONTEXT((#538,#542,#543))REPRESENTATION_CONTEXT
('ID1','3'));
#547=APPLICATION_CONTEXT(
'CONFIGURATION CONTROLLED 3D DESIGNS OF MECHANICAL PARTS AND ASSEMBLIES');
#548=APPLICATION_PROTOCOL_DEFINITION('international standard',
'config_control_design',1994,#547);
#549=DESIGN_CONTEXT('',#547,'design');
#550=MECHANICAL_CONTEXT('',#547,'mechanical');
#551=PRODUCT('PBG__STEPVORLAGE','PBG__STEPVORLAGE','NOT SPECIFIED',(#550));
#552=PRODUCT_DEFINITION_FORMATION_WITH_SPECIFIED_SOURCE('1','LAST_VERSION',#551,
.MADE.);
#556=PRODUCT_CATEGORY('part','');
#557=PRODUCT_RELATED_PRODUCT_CATEGORY('detail','',(#551));
#558=PRODUCT_CATEGORY_RELATIONSHIP('','',#556,#557);
#559=SECURITY_CLASSIFICATION_LEVEL('unclassified');
#560=SECURITY_CLASSIFICATION('','',#559);
#561=CC_DESIGN_SECURITY_CLASSIFICATION(#560,(#552));
#562=APPROVAL_STATUS('approved');
#563=APPROVAL(#562,'');
#564=CC_DESIGN_APPROVAL(#563,(#560,#552,#553));
#565=CALENDAR_DATE(116,9,8);
#566=COORDINATED_UNIVERSAL_TIME_OFFSET(2,0,.AHEAD.);
#567=LOCAL_TIME(9,21,3.6E1,#566);
#568=DATE_AND_TIME(#565,#567);
#569=APPROVAL_DATE_TIME(#568,#563);
#570=DATE_TIME_ROLE('creation_date');
#571=CC_DESIGN_DATE_AND_TIME_ASSIGNMENT(#568,#570,(#553));
#572=DATE_TIME_ROLE('classification_date');
#573=CC_DESIGN_DATE_AND_TIME_ASSIGNMENT(#568,#572,(#560));
#574=PERSON('UNSPECIFIED','UNSPECIFIED',$,$,$,$);
#575=ORGANIZATION('UNSPECIFIED','UNSPECIFIED','UNSPECIFIED');
#576=PERSON_AND_ORGANIZATION(#574,#575);
#577=APPROVAL_ROLE('approver');
#578=APPROVAL_PERSON_ORGANIZATION(#576,#563,#577);
#579=PERSON_AND_ORGANIZATION_ROLE('creator');
#580=CC_DESIGN_PERSON_AND_ORGANIZATION_ASSIGNMENT(#576,#579,(#552,#553));
#581=PERSON_AND_ORGANIZATION_ROLE('design_supplier');
#582=CC_DESIGN_PERSON_AND_ORGANIZATION_ASSIGNMENT(#576,#581,(#552));
#583=PERSON_AND_ORGANIZATION_ROLE('classification_officer');
#584=CC_DESIGN_PERSON_AND_ORGANIZATION_ASSIGNMENT(#576,#583,(#560));
#585=PERSON_AND_ORGANIZATION_ROLE('design_owner');
#586=CC_DESIGN_PERSON_AND_ORGANIZATION_ASSIGNMENT(#576,#585,(#551));
#5=CIRCLE('',#4,4.02E0);
#13=B_SPLINE_CURVE_WITH_KNOTS('',3,(#6,#7,#8,#9,#10,#11,#12),.UNSPECIFIED.,.F.,
.F.,(4,1,1,1,4),(0.E0,2.5E-1,5.E-1,7.5E-1,1.E0),.UNSPECIFIED.);
#18=CIRCLE('',#17,2.E0);
#23=CIRCLE('',#22,4.02E0);
#28=CIRCLE('',#27,2.E0);
#36=B_SPLINE_CURVE_WITH_KNOTS('',3,(#29,#30,#31,#32,#33,#34,#35),.UNSPECIFIED.,
.F.,.F.,(4,1,1,1,4),(0.E0,2.5E-1,5.E-1,7.5E-1,1.E0),.UNSPECIFIED.);
#53=CIRCLE('',#52,6.02E0);
#58=CIRCLE('',#57,6.02E0);
#63=CIRCLE('',#62,6.02E0);
#68=CIRCLE('',#67,7.5E0);
#77=CIRCLE('',#76,7.5E0);
#94=CIRCLE('',#93,6.E0);
#106=B_SPLINE_CURVE_WITH_KNOTS('',3,(#95,#96,#97,#98,#99,#100,#101,#102,#103,
#104,#105),.UNSPECIFIED.,.F.,.F.,(4,1,1,1,1,1,1,1,4),(0.E0,1.25E-1,2.5E-1,
3.75E-1,5.E-1,6.25E-1,7.5E-1,8.75E-1,1.E0),.UNSPECIFIED.);
#111=CIRCLE('',#110,5.E0);
#116=CIRCLE('',#115,5.E0);
#136=B_SPLINE_CURVE_WITH_KNOTS('',3,(#125,#126,#127,#128,#129,#130,#131,#132,
#133,#134,#135),.UNSPECIFIED.,.F.,.F.,(4,1,1,1,1,1,1,1,4),(0.E0,1.25E-1,2.5E-1,
3.75E-1,5.E-1,6.25E-1,7.5E-1,8.75E-1,1.E0),.UNSPECIFIED.);
#141=CIRCLE('',#140,6.E0);
#146=CIRCLE('',#145,1.E0);
#151=CIRCLE('',#150,5.E0);
#156=CIRCLE('',#155,5.E0);
#165=CIRCLE('',#164,5.E0);
#174=CIRCLE('',#173,4.781617859440E0);
#179=CIRCLE('',#178,4.781617859440E0);
#188=CIRCLE('',#187,4.37E0);
#197=CIRCLE('',#196,4.37E0);
#202=CIRCLE('',#201,4.02E0);
#211=CIRCLE('',#210,4.02E0);
#269=EDGE_CURVE('',#227,#241,#18,.T.);
#271=EDGE_CURVE('',#241,#243,#58,.T.);
#273=EDGE_CURVE('',#239,#243,#28,.T.);
#275=EDGE_CURVE('',#227,#239,#5,.T.);
#285=EDGE_CURVE('',#248,#262,#13,.T.);
#287=EDGE_CURVE('',#241,#248,#63,.T.);
#290=EDGE_CURVE('',#227,#239,#23,.T.);
#293=EDGE_CURVE('',#253,#243,#53,.T.);
#295=EDGE_CURVE('',#262,#253,#36,.T.);
#305=EDGE_CURVE('',#248,#249,#44,.T.);
#308=EDGE_CURVE('',#262,#263,#40,.T.);
#310=EDGE_CURVE('',#263,#256,#106,.T.);
#312=EDGE_CURVE('',#256,#257,#85,.T.);
#314=EDGE_CURVE('',#249,#257,#81,.T.);
#325=EDGE_CURVE('',#252,#249,#77,.T.);
#327=EDGE_CURVE('',#252,#253,#48,.T.);
#340=EDGE_CURVE('',#257,#260,#68,.T.);
#342=EDGE_CURVE('',#252,#260,#72,.T.);
#355=EDGE_CURVE('',#245,#256,#94,.T.);
#357=EDGE_CURVE('',#261,#245,#141,.T.);
#359=EDGE_CURVE('',#260,#261,#89,.T.);
#372=EDGE_CURVE('',#218,#263,#111,.T.);
#374=EDGE_CURVE('',#218,#230,#151,.T.);
#376=EDGE_CURVE('',#245,#230,#146,.T.);
#387=EDGE_CURVE('',#263,#230,#116,.T.);
#389=EDGE_CURVE('',#230,#231,#120,.T.);
#391=EDGE_CURVE('',#219,#231,#165,.T.);
#393=EDGE_CURVE('',#218,#219,#124,.T.);
#403=EDGE_CURVE('',#261,#263,#136,.T.);
#431=EDGE_CURVE('',#219,#231,#156,.T.);
#443=EDGE_CURVE('',#219,#221,#160,.T.);
#445=EDGE_CURVE('',#221,#233,#174,.T.);
#447=EDGE_CURVE('',#231,#233,#169,.T.);
#461=EDGE_CURVE('',#221,#233,#179,.T.);
#475=EDGE_CURVE('',#224,#236,#188,.T.);
#477=EDGE_CURVE('',#224,#236,#197,.T.);
#487=EDGE_CURVE('',#224,#225,#183,.T.);
#490=EDGE_CURVE('',#236,#237,#192,.T.);
#492=EDGE_CURVE('',#225,#237,#211,.T.);
#503=EDGE_CURVE('',#225,#237,#202,.T.);
#515=EDGE_CURVE('',#225,#227,#206,.T.);
#518=EDGE_CURVE('',#237,#239,#215,.T.);
#538=(LENGTH_UNIT()NAMED_UNIT(*)SI_UNIT(.MILLI.,.METRE.));
#540=(NAMED_UNIT(*)PLANE_ANGLE_UNIT()SI_UNIT($,.RADIAN.));
#543=(NAMED_UNIT(*)SI_UNIT($,.STERADIAN.)SOLID_ANGLE_UNIT());
#546=ADVANCED_BREP_SHAPE_REPRESENTATION('',(#537),#545);
#553=PRODUCT_DEFINITION('design','',#552,#549);
#554=PRODUCT_DEFINITION_SHAPE('','SHAPE FOR PBG__STEPVORLAGE.',#553);
#555=SHAPE_DEFINITION_REPRESENTATION(#554,#546);
ENDSEC;
END-ISO-10303-21;
