ISO-10303-21;
HEADER;
FILE_DESCRIPTION((''),'2;1');
FILE_NAME('PBG__STEPVORLAGE','2016-08-09T',('deusss58'),(''),
'PRO/ENGINEER BY PARAMETRIC TECHNOLOGY CORPORATION, 2014430',
'PRO/ENGINEER BY PARAMETRIC TECHNOLOGY CORPORATION, 2014430','');
FILE_SCHEMA(('CONFIG_CONTROL_DESIGN'));
ENDSEC;
DATA;
#1=CARTESIAN_POINT('',(0.E0,0.E0,-2.E0));
#2=DIRECTION('',(0.E0,0.E0,-1.E0));
#3=DIRECTION('',(0.E0,-1.E0,0.E0));
#4=AXIS2_PLACEMENT_3D('',#1,#2,#3);
#6=CARTESIAN_POINT('',(9.007750741388E0,-4.699218882205E-1,0.E0));
#7=CARTESIAN_POINT('',(8.922718961050E0,-4.302709178622E-1,0.E0));
#8=CARTESIAN_POINT('',(8.751210059368E0,-3.502950035665E-1,-1.107912902246E-2));
#9=CARTESIAN_POINT('',(8.482322140985E0,-2.249105080392E-1,-6.602990162038E-2));
#10=CARTESIAN_POINT('',(8.223646251498E0,-1.042879597912E-1,
-1.587393300975E-1));
#11=CARTESIAN_POINT('',(8.072188273362E0,-3.366194469777E-2,
-2.368505528755E-1));
#12=CARTESIAN_POINT('',(8.E0,0.E0,-2.796511981578E-1));
#14=CARTESIAN_POINT('',(0.E0,-9.02E0,-2.E0));
#15=DIRECTION('',(1.E0,0.E0,0.E0));
#16=DIRECTION('',(0.E0,1.E0,0.E0));
#17=AXIS2_PLACEMENT_3D('',#14,#15,#16);
#19=CARTESIAN_POINT('',(0.E0,0.E0,-2.E0));
#20=DIRECTION('',(0.E0,0.E0,1.E0));
#21=DIRECTION('',(0.E0,-1.E0,0.E0));
#22=AXIS2_PLACEMENT_3D('',#19,#20,#21);
#24=CARTESIAN_POINT('',(0.E0,9.02E0,-2.E0));
#25=DIRECTION('',(-1.E0,0.E0,0.E0));
#26=DIRECTION('',(0.E0,-1.E0,0.E0));
#27=AXIS2_PLACEMENT_3D('',#24,#25,#26);
#29=CARTESIAN_POINT('',(8.E0,0.E0,-2.796511981578E-1));
#30=CARTESIAN_POINT('',(8.057841951029E0,2.697214472725E-2,-2.453565307124E-1));
#31=CARTESIAN_POINT('',(8.178385599588E0,8.318257119229E-2,-1.814425444317E-1));
#32=CARTESIAN_POINT('',(8.379434880531E0,1.769333905629E-1,-1.005364623063E-1));
#33=CARTESIAN_POINT('',(8.588738564753E0,2.745333013956E-1,-4.195906153319E-2));
#34=CARTESIAN_POINT('',(8.802869077157E0,3.743839991743E-1,-7.077904101723E-3));
#35=CARTESIAN_POINT('',(8.939912141650E0,4.382882296440E-1,0.E0));
#36=CARTESIAN_POINT('',(9.007750741388E0,4.699218882205E-1,0.E0));
#38=DIRECTION('',(0.E0,0.E0,-1.E0));
#39=VECTOR('',#38,1.720348801842E0);
#40=CARTESIAN_POINT('',(8.E0,0.E0,-2.796511981578E-1));
#41=LINE('',#40,#39);
#42=DIRECTION('',(9.063077870366E-1,-4.226182617407E-1,0.E0));
#43=VECTOR('',#42,2.105138705396E0);
#44=CARTESIAN_POINT('',(9.007750741388E0,-4.699218882205E-1,0.E0));
#45=LINE('',#44,#43);
#46=DIRECTION('',(-9.063077870366E-1,-4.226182617407E-1,0.E0));
#47=VECTOR('',#46,2.105138705396E0);
#48=CARTESIAN_POINT('',(1.091565434288E1,1.359591948618E0,0.E0));
#49=LINE('',#48,#47);
#50=CARTESIAN_POINT('',(0.E0,0.E0,0.E0));
#51=DIRECTION('',(0.E0,0.E0,1.E0));
#52=DIRECTION('',(9.986419890674E-1,5.209777031269E-2,0.E0));
#53=AXIS2_PLACEMENT_3D('',#50,#51,#52);
#55=CARTESIAN_POINT('',(0.E0,0.E0,0.E0));
#56=DIRECTION('',(0.E0,0.E0,-1.E0));
#57=DIRECTION('',(0.E0,-1.E0,0.E0));
#58=AXIS2_PLACEMENT_3D('',#55,#56,#57);
#60=CARTESIAN_POINT('',(0.E0,0.E0,0.E0));
#61=DIRECTION('',(0.E0,0.E0,1.E0));
#62=DIRECTION('',(0.E0,-1.E0,0.E0));
#63=AXIS2_PLACEMENT_3D('',#60,#61,#62);
#65=CARTESIAN_POINT('',(0.E0,0.E0,-1.E0));
#66=DIRECTION('',(0.E0,0.E0,-1.E0));
#67=DIRECTION('',(9.923322129892E-1,-1.235992680562E-1,0.E0));
#68=AXIS2_PLACEMENT_3D('',#65,#66,#67);
#70=DIRECTION('',(0.E0,0.E0,-1.E0));
#71=VECTOR('',#70,1.E0);
#72=CARTESIAN_POINT('',(1.091565434288E1,1.359591948618E0,0.E0));
#73=LINE('',#72,#71);
#74=CARTESIAN_POINT('',(0.E0,0.E0,0.E0));
#75=DIRECTION('',(0.E0,0.E0,1.E0));
#76=DIRECTION('',(9.923322129892E-1,1.235992680562E-1,0.E0));
#77=AXIS2_PLACEMENT_3D('',#74,#75,#76);
#79=DIRECTION('',(0.E0,0.E0,-1.E0));
#80=VECTOR('',#79,1.E0);
#81=CARTESIAN_POINT('',(1.091565434288E1,-1.359591948618E0,0.E0));
#82=LINE('',#81,#80);
#83=DIRECTION('',(9.063077870367E-1,-4.226182617407E-1,0.E0));
#84=VECTOR('',#83,2.126715399276E0);
#85=CARTESIAN_POINT('',(8.988195615707E0,-4.608031833591E-1,-1.E0));
#86=LINE('',#85,#84);
#87=DIRECTION('',(-9.063077870366E-1,-4.226182617407E-1,0.E0));
#88=VECTOR('',#87,2.126715399276E0);
#89=CARTESIAN_POINT('',(1.091565434288E1,1.359591948618E0,-1.E0));
#90=LINE('',#89,#88);
#91=CARTESIAN_POINT('',(0.E0,0.E0,-1.E0));
#92=DIRECTION('',(0.E0,0.E0,1.E0));
#93=DIRECTION('',(0.E0,1.E0,0.E0));
#94=AXIS2_PLACEMENT_3D('',#91,#92,#93);
#96=CARTESIAN_POINT('',(8.E0,0.E0,-2.E0));
#97=CARTESIAN_POINT('',(8.E0,0.E0,-1.931908078129E0));
#98=CARTESIAN_POINT('',(8.013585479602E0,-6.335013178186E-3,-1.799524844180E0));
#99=CARTESIAN_POINT('',(8.072663699749E0,-3.388363966284E-2,-1.608607488315E0));
#100=CARTESIAN_POINT('',(8.165936326786E0,-7.737737994621E-2,
-1.436552332749E0));
#101=CARTESIAN_POINT('',(8.289459193045E0,-1.349770384401E-1,
-1.286429752479E0));
#102=CARTESIAN_POINT('',(8.438707032488E0,-2.045724489358E-1,
-1.163214193453E0));
#103=CARTESIAN_POINT('',(8.608773348591E0,-2.838756745288E-1,
-1.070835294137E0));
#104=CARTESIAN_POINT('',(8.794334785276E0,-3.704043935129E-1,
-1.013262993186E0));
#105=CARTESIAN_POINT('',(8.922505051485E0,-4.301711701942E-1,-1.E0));
#106=CARTESIAN_POINT('',(8.988195615707E0,-4.608031833591E-1,-1.E0));
#108=CARTESIAN_POINT('',(0.E0,0.E0,-2.E0));
#109=DIRECTION('',(0.E0,0.E0,1.E0));
#110=DIRECTION('',(0.E0,-1.E0,0.E0));
#111=AXIS2_PLACEMENT_3D('',#108,#109,#110);
#113=CARTESIAN_POINT('',(0.E0,0.E0,-2.E0));
#114=DIRECTION('',(0.E0,0.E0,1.E0));
#115=DIRECTION('',(1.E0,0.E0,0.E0));
#116=AXIS2_PLACEMENT_3D('',#113,#114,#115);
#118=DIRECTION('',(0.E0,0.E0,-1.E0));
#119=VECTOR('',#118,9.4E0);
#120=CARTESIAN_POINT('',(0.E0,8.E0,-2.E0));
#121=LINE('',#120,#119);
#122=DIRECTION('',(0.E0,0.E0,-1.E0));
#123=VECTOR('',#122,9.4E0);
#124=CARTESIAN_POINT('',(0.E0,-8.E0,-2.E0));
#125=LINE('',#124,#123);
#126=CARTESIAN_POINT('',(8.988195615707E0,4.608031833591E-1,-1.E0));
#127=CARTESIAN_POINT('',(8.922481589643E0,4.301602297573E-1,-1.E0));
#128=CARTESIAN_POINT('',(8.794254928157E0,3.703671555270E-1,-1.013270763307E0));
#129=CARTESIAN_POINT('',(8.608545906032E0,2.837696163216E-1,-1.070918947316E0));
#130=CARTESIAN_POINT('',(8.438373116680E0,2.044167414372E-1,-1.163430507518E0));
#131=CARTESIAN_POINT('',(8.289131688880E0,1.348243207401E-1,-1.286757759923E0));
#132=CARTESIAN_POINT('',(8.165718254397E0,7.727569112132E-2,-1.436890407392E0));
#133=CARTESIAN_POINT('',(8.072581324343E0,3.384522738019E-2,-1.608834442501E0));
#134=CARTESIAN_POINT('',(8.013579905431E0,6.332413899609E-3,-1.799595107685E0));
#135=CARTESIAN_POINT('',(8.E0,0.E0,-1.931927230313E0));
#136=CARTESIAN_POINT('',(8.E0,0.E0,-2.E0));
#138=CARTESIAN_POINT('',(0.E0,0.E0,-1.E0));
#139=DIRECTION('',(0.E0,0.E0,1.E0));
#140=DIRECTION('',(9.986884017452E-1,5.120035370657E-2,0.E0));
#141=AXIS2_PLACEMENT_3D('',#138,#139,#140);
#143=CARTESIAN_POINT('',(0.E0,9.E0,-2.E0));
#144=DIRECTION('',(1.E0,0.E0,0.E0));
#145=DIRECTION('',(0.E0,0.E0,1.E0));
#146=AXIS2_PLACEMENT_3D('',#143,#144,#145);
#148=CARTESIAN_POINT('',(0.E0,0.E0,-2.E0));
#149=DIRECTION('',(0.E0,0.E0,-1.E0));
#150=DIRECTION('',(0.E0,-1.E0,0.E0));
#151=AXIS2_PLACEMENT_3D('',#148,#149,#150);
#153=CARTESIAN_POINT('',(0.E0,0.E0,-1.14E1));
#154=DIRECTION('',(0.E0,0.E0,-1.E0));
#155=DIRECTION('',(0.E0,-1.E0,0.E0));
#156=AXIS2_PLACEMENT_3D('',#153,#154,#155);
#158=DIRECTION('',(0.E0,3.420201433257E-1,-9.396926207859E-1));
#159=VECTOR('',#158,6.385066634855E-1);
#160=CARTESIAN_POINT('',(0.E0,-8.E0,-1.14E1));
#161=LINE('',#160,#159);
#162=CARTESIAN_POINT('',(0.E0,0.E0,-1.14E1));
#163=DIRECTION('',(0.E0,0.E0,1.E0));
#164=DIRECTION('',(0.E0,-1.E0,0.E0));
#165=AXIS2_PLACEMENT_3D('',#162,#163,#164);
#167=DIRECTION('',(0.E0,-3.420201433257E-1,-9.396926207859E-1));
#168=VECTOR('',#167,6.385066634855E-1);
#169=CARTESIAN_POINT('',(0.E0,8.E0,-1.14E1));
#170=LINE('',#169,#168);
#171=CARTESIAN_POINT('',(0.E0,0.E0,-1.2E1));
#172=DIRECTION('',(0.E0,0.E0,-1.E0));
#173=DIRECTION('',(0.E0,-1.E0,0.E0));
#174=AXIS2_PLACEMENT_3D('',#171,#172,#173);
#176=CARTESIAN_POINT('',(0.E0,0.E0,-1.2E1));
#177=DIRECTION('',(0.E0,0.E0,1.E0));
#178=DIRECTION('',(0.E0,-1.E0,0.E0));
#179=AXIS2_PLACEMENT_3D('',#176,#177,#178);
#181=DIRECTION('',(0.E0,7.071067811866E-1,7.071067811865E-1));
#182=VECTOR('',#181,4.949747468306E-1);
#183=CARTESIAN_POINT('',(0.E0,-7.37E0,-1.2E1));
#184=LINE('',#183,#182);
#185=CARTESIAN_POINT('',(0.E0,0.E0,-1.2E1));
#186=DIRECTION('',(0.E0,0.E0,1.E0));
#187=DIRECTION('',(0.E0,-1.E0,0.E0));
#188=AXIS2_PLACEMENT_3D('',#185,#186,#187);
#190=DIRECTION('',(0.E0,-7.071067811866E-1,7.071067811865E-1));
#191=VECTOR('',#190,4.949747468306E-1);
#192=CARTESIAN_POINT('',(0.E0,7.37E0,-1.2E1));
#193=LINE('',#192,#191);
#194=CARTESIAN_POINT('',(0.E0,0.E0,-1.2E1));
#195=DIRECTION('',(0.E0,0.E0,-1.E0));
#196=DIRECTION('',(0.E0,-1.E0,0.E0));
#197=AXIS2_PLACEMENT_3D('',#194,#195,#196);
#199=CARTESIAN_POINT('',(0.E0,0.E0,-1.165E1));
#200=DIRECTION('',(0.E0,0.E0,-1.E0));
#201=DIRECTION('',(0.E0,-1.E0,0.E0));
#202=AXIS2_PLACEMENT_3D('',#199,#200,#201);
#204=DIRECTION('',(0.E0,0.E0,1.E0));
#205=VECTOR('',#204,9.65E0);
#206=CARTESIAN_POINT('',(0.E0,-7.02E0,-1.165E1));
#207=LINE('',#206,#205);
#208=CARTESIAN_POINT('',(0.E0,0.E0,-1.165E1));
#209=DIRECTION('',(0.E0,0.E0,1.E0));
#210=DIRECTION('',(0.E0,-1.E0,0.E0));
#211=AXIS2_PLACEMENT_3D('',#208,#209,#210);
#213=DIRECTION('',(0.E0,0.E0,1.E0));
#214=VECTOR('',#213,9.65E0);
#215=CARTESIAN_POINT('',(0.E0,7.02E0,-1.165E1));
#216=LINE('',#215,#214);
#217=CARTESIAN_POINT('',(0.E0,-8.E0,-2.E0));
#218=CARTESIAN_POINT('',(0.E0,-8.E0,-1.14E1));
#219=VERTEX_POINT('',#217);
#220=VERTEX_POINT('',#218);
#221=CARTESIAN_POINT('',(0.E0,-7.781617859440E0,-1.2E1));
#222=VERTEX_POINT('',#221);
#223=CARTESIAN_POINT('',(0.E0,-7.37E0,-1.2E1));
#224=CARTESIAN_POINT('',(0.E0,-7.02E0,-1.165E1));
#225=VERTEX_POINT('',#223);
#226=VERTEX_POINT('',#224);
#227=CARTESIAN_POINT('',(0.E0,-7.02E0,-2.E0));
#228=VERTEX_POINT('',#227);
#229=CARTESIAN_POINT('',(0.E0,8.E0,-2.E0));
#230=CARTESIAN_POINT('',(0.E0,8.E0,-1.14E1));
#231=VERTEX_POINT('',#229);
#232=VERTEX_POINT('',#230);
#233=CARTESIAN_POINT('',(0.E0,7.781617859440E0,-1.2E1));
#234=VERTEX_POINT('',#233);
#235=CARTESIAN_POINT('',(0.E0,7.37E0,-1.2E1));
#236=CARTESIAN_POINT('',(0.E0,7.02E0,-1.165E1));
#237=VERTEX_POINT('',#235);
#238=VERTEX_POINT('',#236);
#239=CARTESIAN_POINT('',(0.E0,7.02E0,-2.E0));
#240=VERTEX_POINT('',#239);
#241=CARTESIAN_POINT('',(0.E0,-9.02E0,0.E0));
#242=VERTEX_POINT('',#241);
#243=CARTESIAN_POINT('',(0.E0,9.02E0,0.E0));
#244=VERTEX_POINT('',#243);
#245=CARTESIAN_POINT('',(0.E0,9.E0,-1.E0));
#246=VERTEX_POINT('',#245);
#247=CARTESIAN_POINT('',(9.007750741388E0,-4.699218882205E-1,0.E0));
#248=CARTESIAN_POINT('',(1.091565434288E1,-1.359591948618E0,0.E0));
#249=VERTEX_POINT('',#247);
#250=VERTEX_POINT('',#248);
#251=CARTESIAN_POINT('',(1.091565434288E1,1.359591948618E0,0.E0));
#252=CARTESIAN_POINT('',(9.007750741388E0,4.699218882205E-1,0.E0));
#253=VERTEX_POINT('',#251);
#254=VERTEX_POINT('',#252);
#255=CARTESIAN_POINT('',(8.988195615707E0,-4.608031833591E-1,-1.E0));
#256=CARTESIAN_POINT('',(1.091565434288E1,-1.359591948618E0,-1.E0));
#257=VERTEX_POINT('',#255);
#258=VERTEX_POINT('',#256);
#259=CARTESIAN_POINT('',(1.091565434288E1,1.359591948618E0,-1.E0));
#260=CARTESIAN_POINT('',(8.988195615707E0,4.608031833591E-1,-1.E0));
#261=VERTEX_POINT('',#259);
#262=VERTEX_POINT('',#260);
#263=VERTEX_POINT('',#12);
#264=VERTEX_POINT('',#96);
#265=CARTESIAN_POINT('',(0.E0,0.E0,-2.E0));
#266=DIRECTION('',(0.E0,0.E0,-1.E0));
#267=DIRECTION('',(0.E0,-1.E0,0.E0));
#268=AXIS2_PLACEMENT_3D('',#265,#266,#267);
#269=TOROIDAL_SURFACE('',#268,9.02E0,2.E0);
#271=ORIENTED_EDGE('',*,*,#270,.T.);
#273=ORIENTED_EDGE('',*,*,#272,.T.);
#275=ORIENTED_EDGE('',*,*,#274,.F.);
#277=ORIENTED_EDGE('',*,*,#276,.F.);
#278=EDGE_LOOP('',(#271,#273,#275,#277));
#279=FACE_OUTER_BOUND('',#278,.F.);
#280=ADVANCED_FACE('',(#279),#269,.T.);
#281=CARTESIAN_POINT('',(0.E0,0.E0,-2.E0));
#282=DIRECTION('',(0.E0,0.E0,-1.E0));
#283=DIRECTION('',(0.E0,-1.E0,0.E0));
#284=AXIS2_PLACEMENT_3D('',#281,#282,#283);
#285=TOROIDAL_SURFACE('',#284,9.02E0,2.E0);
#287=ORIENTED_EDGE('',*,*,#286,.F.);
#289=ORIENTED_EDGE('',*,*,#288,.F.);
#290=ORIENTED_EDGE('',*,*,#270,.F.);
#292=ORIENTED_EDGE('',*,*,#291,.T.);
#293=ORIENTED_EDGE('',*,*,#274,.T.);
#295=ORIENTED_EDGE('',*,*,#294,.F.);
#297=ORIENTED_EDGE('',*,*,#296,.F.);
#298=EDGE_LOOP('',(#287,#289,#290,#292,#293,#295,#297));
#299=FACE_OUTER_BOUND('',#298,.F.);
#300=ADVANCED_FACE('',(#299),#285,.T.);
#301=CARTESIAN_POINT('',(8.E0,0.E0,0.E0));
#302=DIRECTION('',(-4.226182617407E-1,-9.063077870367E-1,0.E0));
#303=DIRECTION('',(9.063077870367E-1,-4.226182617407E-1,0.E0));
#304=AXIS2_PLACEMENT_3D('',#301,#302,#303);
#305=PLANE('',#304);
#307=ORIENTED_EDGE('',*,*,#306,.F.);
#308=ORIENTED_EDGE('',*,*,#286,.T.);
#310=ORIENTED_EDGE('',*,*,#309,.T.);
#312=ORIENTED_EDGE('',*,*,#311,.T.);
#314=ORIENTED_EDGE('',*,*,#313,.T.);
#316=ORIENTED_EDGE('',*,*,#315,.F.);
#317=EDGE_LOOP('',(#307,#308,#310,#312,#314,#316));
#318=FACE_OUTER_BOUND('',#317,.F.);
#319=ADVANCED_FACE('',(#318),#305,.F.);
#320=CARTESIAN_POINT('',(0.E0,0.E0,0.E0));
#321=DIRECTION('',(0.E0,0.E0,-1.E0));
#322=DIRECTION('',(0.E0,-1.E0,0.E0));
#323=AXIS2_PLACEMENT_3D('',#320,#321,#322);
#324=PLANE('',#323);
#325=ORIENTED_EDGE('',*,*,#306,.T.);
#327=ORIENTED_EDGE('',*,*,#326,.F.);
#329=ORIENTED_EDGE('',*,*,#328,.T.);
#330=ORIENTED_EDGE('',*,*,#294,.T.);
#331=ORIENTED_EDGE('',*,*,#272,.F.);
#332=ORIENTED_EDGE('',*,*,#288,.T.);
#333=EDGE_LOOP('',(#325,#327,#329,#330,#331,#332));
#334=FACE_OUTER_BOUND('',#333,.F.);
#335=ADVANCED_FACE('',(#334),#324,.F.);
#336=CARTESIAN_POINT('',(0.E0,0.E0,6.E-1));
#337=DIRECTION('',(0.E0,0.E0,-1.E0));
#338=DIRECTION('',(0.E0,-1.E0,0.E0));
#339=AXIS2_PLACEMENT_3D('',#336,#337,#338);
#340=CYLINDRICAL_SURFACE('',#339,1.1E1);
#342=ORIENTED_EDGE('',*,*,#341,.T.);
#344=ORIENTED_EDGE('',*,*,#343,.F.);
#345=ORIENTED_EDGE('',*,*,#326,.T.);
#346=ORIENTED_EDGE('',*,*,#315,.T.);
#347=EDGE_LOOP('',(#342,#344,#345,#346));
#348=FACE_OUTER_BOUND('',#347,.F.);
#349=ADVANCED_FACE('',(#348),#340,.T.);
#350=CARTESIAN_POINT('',(0.E0,0.E0,-1.E0));
#351=DIRECTION('',(0.E0,0.E0,-1.E0));
#352=DIRECTION('',(0.E0,-1.E0,0.E0));
#353=AXIS2_PLACEMENT_3D('',#350,#351,#352);
#354=PLANE('',#353);
#355=ORIENTED_EDGE('',*,*,#313,.F.);
#357=ORIENTED_EDGE('',*,*,#356,.F.);
#359=ORIENTED_EDGE('',*,*,#358,.F.);
#361=ORIENTED_EDGE('',*,*,#360,.F.);
#362=ORIENTED_EDGE('',*,*,#341,.F.);
#363=EDGE_LOOP('',(#355,#357,#359,#361,#362));
#364=FACE_OUTER_BOUND('',#363,.F.);
#365=ADVANCED_FACE('',(#364),#354,.T.);
#366=CARTESIAN_POINT('',(0.E0,0.E0,-2.E0));
#367=DIRECTION('',(0.E0,0.E0,-1.E0));
#368=DIRECTION('',(0.E0,-1.E0,0.E0));
#369=AXIS2_PLACEMENT_3D('',#366,#367,#368);
#370=TOROIDAL_SURFACE('',#369,9.E0,1.E0);
#371=ORIENTED_EDGE('',*,*,#356,.T.);
#372=ORIENTED_EDGE('',*,*,#311,.F.);
#374=ORIENTED_EDGE('',*,*,#373,.F.);
#376=ORIENTED_EDGE('',*,*,#375,.T.);
#378=ORIENTED_EDGE('',*,*,#377,.F.);
#379=EDGE_LOOP('',(#371,#372,#374,#376,#378));
#380=FACE_OUTER_BOUND('',#379,.F.);
#381=ADVANCED_FACE('',(#380),#370,.F.);
#382=CARTESIAN_POINT('',(0.E0,0.E0,6.E-1));
#383=DIRECTION('',(0.E0,0.E0,-1.E0));
#384=DIRECTION('',(0.E0,-1.E0,0.E0));
#385=AXIS2_PLACEMENT_3D('',#382,#383,#384);
#386=CYLINDRICAL_SURFACE('',#385,8.E0);
#387=ORIENTED_EDGE('',*,*,#373,.T.);
#389=ORIENTED_EDGE('',*,*,#388,.T.);
#391=ORIENTED_EDGE('',*,*,#390,.T.);
#393=ORIENTED_EDGE('',*,*,#392,.F.);
#395=ORIENTED_EDGE('',*,*,#394,.F.);
#396=EDGE_LOOP('',(#387,#389,#391,#393,#395));
#397=FACE_OUTER_BOUND('',#396,.F.);
#398=ADVANCED_FACE('',(#397),#386,.T.);
#399=CARTESIAN_POINT('',(0.E0,0.E0,-2.E0));
#400=DIRECTION('',(0.E0,0.E0,-1.E0));
#401=DIRECTION('',(0.E0,-1.E0,0.E0));
#402=AXIS2_PLACEMENT_3D('',#399,#400,#401);
#403=TOROIDAL_SURFACE('',#402,9.E0,1.E0);
#405=ORIENTED_EDGE('',*,*,#404,.F.);
#406=ORIENTED_EDGE('',*,*,#358,.T.);
#407=ORIENTED_EDGE('',*,*,#377,.T.);
#408=ORIENTED_EDGE('',*,*,#388,.F.);
#409=EDGE_LOOP('',(#405,#406,#407,#408));
#410=FACE_OUTER_BOUND('',#409,.F.);
#411=ADVANCED_FACE('',(#410),#403,.F.);
#412=CARTESIAN_POINT('',(1.091565434288E1,1.359591948618E0,0.E0));
#413=DIRECTION('',(-4.226182617407E-1,9.063077870367E-1,0.E0));
#414=DIRECTION('',(-9.063077870367E-1,-4.226182617407E-1,0.E0));
#415=AXIS2_PLACEMENT_3D('',#412,#413,#414);
#416=PLANE('',#415);
#417=ORIENTED_EDGE('',*,*,#328,.F.);
#418=ORIENTED_EDGE('',*,*,#343,.T.);
#419=ORIENTED_EDGE('',*,*,#360,.T.);
#420=ORIENTED_EDGE('',*,*,#404,.T.);
#421=ORIENTED_EDGE('',*,*,#309,.F.);
#422=ORIENTED_EDGE('',*,*,#296,.T.);
#423=EDGE_LOOP('',(#417,#418,#419,#420,#421,#422));
#424=FACE_OUTER_BOUND('',#423,.F.);
#425=ADVANCED_FACE('',(#424),#416,.F.);
#426=CARTESIAN_POINT('',(0.E0,0.E0,6.E-1));
#427=DIRECTION('',(0.E0,0.E0,-1.E0));
#428=DIRECTION('',(0.E0,-1.E0,0.E0));
#429=AXIS2_PLACEMENT_3D('',#426,#427,#428);
#430=CYLINDRICAL_SURFACE('',#429,8.E0);
#431=ORIENTED_EDGE('',*,*,#394,.T.);
#433=ORIENTED_EDGE('',*,*,#432,.T.);
#434=ORIENTED_EDGE('',*,*,#390,.F.);
#435=ORIENTED_EDGE('',*,*,#375,.F.);
#436=EDGE_LOOP('',(#431,#433,#434,#435));
#437=FACE_OUTER_BOUND('',#436,.F.);
#438=ADVANCED_FACE('',(#437),#430,.T.);
#439=CARTESIAN_POINT('',(0.E0,0.E0,-1.17E1));
#440=DIRECTION('',(0.E0,0.E0,1.E0));
#441=DIRECTION('',(0.E0,1.E0,0.E0));
#442=AXIS2_PLACEMENT_3D('',#439,#440,#441);
#443=CONICAL_SURFACE('',#442,7.890808929720E0,2.E1);
#445=ORIENTED_EDGE('',*,*,#444,.T.);
#447=ORIENTED_EDGE('',*,*,#446,.T.);
#449=ORIENTED_EDGE('',*,*,#448,.F.);
#450=ORIENTED_EDGE('',*,*,#432,.F.);
#451=EDGE_LOOP('',(#445,#447,#449,#450));
#452=FACE_OUTER_BOUND('',#451,.F.);
#453=ADVANCED_FACE('',(#452),#443,.T.);
#454=CARTESIAN_POINT('',(0.E0,0.E0,-1.17E1));
#455=DIRECTION('',(0.E0,0.E0,1.E0));
#456=DIRECTION('',(0.E0,1.E0,0.E0));
#457=AXIS2_PLACEMENT_3D('',#454,#455,#456);
#458=CONICAL_SURFACE('',#457,7.890808929720E0,2.E1);
#459=ORIENTED_EDGE('',*,*,#444,.F.);
#460=ORIENTED_EDGE('',*,*,#392,.T.);
#461=ORIENTED_EDGE('',*,*,#448,.T.);
#463=ORIENTED_EDGE('',*,*,#462,.F.);
#464=EDGE_LOOP('',(#459,#460,#461,#463));
#465=FACE_OUTER_BOUND('',#464,.F.);
#466=ADVANCED_FACE('',(#465),#458,.T.);
#467=CARTESIAN_POINT('',(0.E0,0.E0,-1.2E1));
#468=DIRECTION('',(0.E0,0.E0,-1.E0));
#469=DIRECTION('',(0.E0,-1.E0,0.E0));
#470=AXIS2_PLACEMENT_3D('',#467,#468,#469);
#471=PLANE('',#470);
#472=ORIENTED_EDGE('',*,*,#446,.F.);
#473=ORIENTED_EDGE('',*,*,#462,.T.);
#474=EDGE_LOOP('',(#472,#473));
#475=FACE_OUTER_BOUND('',#474,.F.);
#477=ORIENTED_EDGE('',*,*,#476,.F.);
#479=ORIENTED_EDGE('',*,*,#478,.T.);
#480=EDGE_LOOP('',(#477,#479));
#481=FACE_BOUND('',#480,.F.);
#482=ADVANCED_FACE('',(#475,#481),#471,.T.);
#483=CARTESIAN_POINT('',(0.E0,0.E0,-1.1825E1));
#484=DIRECTION('',(0.E0,0.E0,-1.E0));
#485=DIRECTION('',(0.E0,-1.E0,0.E0));
#486=AXIS2_PLACEMENT_3D('',#483,#484,#485);
#487=CONICAL_SURFACE('',#486,7.195E0,4.5E1);
#489=ORIENTED_EDGE('',*,*,#488,.F.);
#490=ORIENTED_EDGE('',*,*,#476,.T.);
#492=ORIENTED_EDGE('',*,*,#491,.T.);
#494=ORIENTED_EDGE('',*,*,#493,.F.);
#495=EDGE_LOOP('',(#489,#490,#492,#494));
#496=FACE_OUTER_BOUND('',#495,.F.);
#497=ADVANCED_FACE('',(#496),#487,.F.);
#498=CARTESIAN_POINT('',(0.E0,0.E0,-1.1825E1));
#499=DIRECTION('',(0.E0,0.E0,-1.E0));
#500=DIRECTION('',(0.E0,-1.E0,0.E0));
#501=AXIS2_PLACEMENT_3D('',#498,#499,#500);
#502=CONICAL_SURFACE('',#501,7.195E0,4.5E1);
#503=ORIENTED_EDGE('',*,*,#488,.T.);
#505=ORIENTED_EDGE('',*,*,#504,.T.);
#506=ORIENTED_EDGE('',*,*,#491,.F.);
#507=ORIENTED_EDGE('',*,*,#478,.F.);
#508=EDGE_LOOP('',(#503,#505,#506,#507));
#509=FACE_OUTER_BOUND('',#508,.F.);
#510=ADVANCED_FACE('',(#509),#502,.F.);
#511=CARTESIAN_POINT('',(0.E0,0.E0,6.E-1));
#512=DIRECTION('',(0.E0,0.E0,-1.E0));
#513=DIRECTION('',(0.E0,-1.E0,0.E0));
#514=AXIS2_PLACEMENT_3D('',#511,#512,#513);
#515=CYLINDRICAL_SURFACE('',#514,7.02E0);
#517=ORIENTED_EDGE('',*,*,#516,.T.);
#518=ORIENTED_EDGE('',*,*,#276,.T.);
#520=ORIENTED_EDGE('',*,*,#519,.F.);
#521=ORIENTED_EDGE('',*,*,#504,.F.);
#522=EDGE_LOOP('',(#517,#518,#520,#521));
#523=FACE_OUTER_BOUND('',#522,.F.);
#524=ADVANCED_FACE('',(#523),#515,.F.);
#525=CARTESIAN_POINT('',(0.E0,0.E0,6.E-1));
#526=DIRECTION('',(0.E0,0.E0,-1.E0));
#527=DIRECTION('',(0.E0,-1.E0,0.E0));
#528=AXIS2_PLACEMENT_3D('',#525,#526,#527);
#529=CYLINDRICAL_SURFACE('',#528,7.02E0);
#530=ORIENTED_EDGE('',*,*,#516,.F.);
#531=ORIENTED_EDGE('',*,*,#493,.T.);
#532=ORIENTED_EDGE('',*,*,#519,.T.);
#533=ORIENTED_EDGE('',*,*,#291,.F.);
#534=EDGE_LOOP('',(#530,#531,#532,#533));
#535=FACE_OUTER_BOUND('',#534,.F.);
#536=ADVANCED_FACE('',(#535),#529,.F.);
#537=CLOSED_SHELL('',(#280,#300,#319,#335,#349,#365,#381,#398,#411,#425,#438,
#453,#466,#482,#497,#510,#524,#536));
#538=MANIFOLD_SOLID_BREP('',#537);
#540=DIMENSIONAL_EXPONENTS(0.E0,0.E0,0.E0,0.E0,0.E0,0.E0,0.E0);
#542=PLANE_ANGLE_MEASURE_WITH_UNIT(PLANE_ANGLE_MEASURE(1.745329251994E-2),#541);
#543=(CONVERSION_BASED_UNIT('DEGREE',#542)NAMED_UNIT(*)PLANE_ANGLE_UNIT());
#545=UNCERTAINTY_MEASURE_WITH_UNIT(LENGTH_MEASURE(3.334533013451E-3),#539,
'closure',
'Maximum model space distance between geometric entities at asserted connectivities');
#546=(GEOMETRIC_REPRESENTATION_CONTEXT(3)GLOBAL_UNCERTAINTY_ASSIGNED_CONTEXT((
#545))GLOBAL_UNIT_ASSIGNED_CONTEXT((#539,#543,#544))REPRESENTATION_CONTEXT
('ID1','3'));
#548=APPLICATION_CONTEXT(
'CONFIGURATION CONTROLLED 3D DESIGNS OF MECHANICAL PARTS AND ASSEMBLIES');
#549=APPLICATION_PROTOCOL_DEFINITION('international standard',
'config_control_design',1994,#548);
#550=DESIGN_CONTEXT('',#548,'design');
#551=MECHANICAL_CONTEXT('',#548,'mechanical');
#552=PRODUCT('PBG__STEPVORLAGE','PBG__STEPVORLAGE','NOT SPECIFIED',(#551));
#553=PRODUCT_DEFINITION_FORMATION_WITH_SPECIFIED_SOURCE('1','LAST_VERSION',#552,
.MADE.);
#557=PRODUCT_CATEGORY('part','');
#558=PRODUCT_RELATED_PRODUCT_CATEGORY('detail','',(#552));
#559=PRODUCT_CATEGORY_RELATIONSHIP('','',#557,#558);
#560=SECURITY_CLASSIFICATION_LEVEL('unclassified');
#561=SECURITY_CLASSIFICATION('','',#560);
#562=CC_DESIGN_SECURITY_CLASSIFICATION(#561,(#553));
#563=APPROVAL_STATUS('approved');
#564=APPROVAL(#563,'');
#565=CC_DESIGN_APPROVAL(#564,(#561,#553,#554));
#566=CALENDAR_DATE(116,9,8);
#567=COORDINATED_UNIVERSAL_TIME_OFFSET(2,0,.AHEAD.);
#568=LOCAL_TIME(9,49,8.E0,#567);
#569=DATE_AND_TIME(#566,#568);
#570=APPROVAL_DATE_TIME(#569,#564);
#571=DATE_TIME_ROLE('creation_date');
#572=CC_DESIGN_DATE_AND_TIME_ASSIGNMENT(#569,#571,(#554));
#573=DATE_TIME_ROLE('classification_date');
#574=CC_DESIGN_DATE_AND_TIME_ASSIGNMENT(#569,#573,(#561));
#575=PERSON('UNSPECIFIED','UNSPECIFIED',$,$,$,$);
#576=ORGANIZATION('UNSPECIFIED','UNSPECIFIED','UNSPECIFIED');
#577=PERSON_AND_ORGANIZATION(#575,#576);
#578=APPROVAL_ROLE('approver');
#579=APPROVAL_PERSON_ORGANIZATION(#577,#564,#578);
#580=PERSON_AND_ORGANIZATION_ROLE('creator');
#581=CC_DESIGN_PERSON_AND_ORGANIZATION_ASSIGNMENT(#577,#580,(#553,#554));
#582=PERSON_AND_ORGANIZATION_ROLE('design_supplier');
#583=CC_DESIGN_PERSON_AND_ORGANIZATION_ASSIGNMENT(#577,#582,(#553));
#584=PERSON_AND_ORGANIZATION_ROLE('classification_officer');
#585=CC_DESIGN_PERSON_AND_ORGANIZATION_ASSIGNMENT(#577,#584,(#561));
#586=PERSON_AND_ORGANIZATION_ROLE('design_owner');
#587=CC_DESIGN_PERSON_AND_ORGANIZATION_ASSIGNMENT(#577,#586,(#552));
#5=CIRCLE('',#4,7.02E0);
#13=B_SPLINE_CURVE_WITH_KNOTS('',3,(#6,#7,#8,#9,#10,#11,#12),.UNSPECIFIED.,.F.,
.F.,(4,1,1,1,4),(0.E0,2.5E-1,5.E-1,7.5E-1,1.E0),.UNSPECIFIED.);
#18=CIRCLE('',#17,2.E0);
#23=CIRCLE('',#22,7.02E0);
#28=CIRCLE('',#27,2.E0);
#37=B_SPLINE_CURVE_WITH_KNOTS('',3,(#29,#30,#31,#32,#33,#34,#35,#36),
.UNSPECIFIED.,.F.,.F.,(4,1,1,1,1,4),(0.E0,2.E-1,4.E-1,6.E-1,8.E-1,1.E0),
.UNSPECIFIED.);
#54=CIRCLE('',#53,9.02E0);
#59=CIRCLE('',#58,9.02E0);
#64=CIRCLE('',#63,9.02E0);
#69=CIRCLE('',#68,1.1E1);
#78=CIRCLE('',#77,1.1E1);
#95=CIRCLE('',#94,9.E0);
#107=B_SPLINE_CURVE_WITH_KNOTS('',3,(#96,#97,#98,#99,#100,#101,#102,#103,#104,
#105,#106),.UNSPECIFIED.,.F.,.F.,(4,1,1,1,1,1,1,1,4),(0.E0,1.25E-1,2.5E-1,
3.75E-1,5.E-1,6.25E-1,7.5E-1,8.75E-1,1.E0),.UNSPECIFIED.);
#112=CIRCLE('',#111,8.E0);
#117=CIRCLE('',#116,8.E0);
#137=B_SPLINE_CURVE_WITH_KNOTS('',3,(#126,#127,#128,#129,#130,#131,#132,#133,
#134,#135,#136),.UNSPECIFIED.,.F.,.F.,(4,1,1,1,1,1,1,1,4),(0.E0,1.25E-1,2.5E-1,
3.75E-1,5.E-1,6.25E-1,7.5E-1,8.75E-1,1.E0),.UNSPECIFIED.);
#142=CIRCLE('',#141,9.E0);
#147=CIRCLE('',#146,1.E0);
#152=CIRCLE('',#151,8.E0);
#157=CIRCLE('',#156,8.E0);
#166=CIRCLE('',#165,8.E0);
#175=CIRCLE('',#174,7.781617859440E0);
#180=CIRCLE('',#179,7.781617859440E0);
#189=CIRCLE('',#188,7.37E0);
#198=CIRCLE('',#197,7.37E0);
#203=CIRCLE('',#202,7.02E0);
#212=CIRCLE('',#211,7.02E0);
#270=EDGE_CURVE('',#228,#242,#18,.T.);
#272=EDGE_CURVE('',#242,#244,#59,.T.);
#274=EDGE_CURVE('',#240,#244,#28,.T.);
#276=EDGE_CURVE('',#228,#240,#5,.T.);
#286=EDGE_CURVE('',#249,#263,#13,.T.);
#288=EDGE_CURVE('',#242,#249,#64,.T.);
#291=EDGE_CURVE('',#228,#240,#23,.T.);
#294=EDGE_CURVE('',#254,#244,#54,.T.);
#296=EDGE_CURVE('',#263,#254,#37,.T.);
#306=EDGE_CURVE('',#249,#250,#45,.T.);
#309=EDGE_CURVE('',#263,#264,#41,.T.);
#311=EDGE_CURVE('',#264,#257,#107,.T.);
#313=EDGE_CURVE('',#257,#258,#86,.T.);
#315=EDGE_CURVE('',#250,#258,#82,.T.);
#326=EDGE_CURVE('',#253,#250,#78,.T.);
#328=EDGE_CURVE('',#253,#254,#49,.T.);
#341=EDGE_CURVE('',#258,#261,#69,.T.);
#343=EDGE_CURVE('',#253,#261,#73,.T.);
#356=EDGE_CURVE('',#246,#257,#95,.T.);
#358=EDGE_CURVE('',#262,#246,#142,.T.);
#360=EDGE_CURVE('',#261,#262,#90,.T.);
#373=EDGE_CURVE('',#219,#264,#112,.T.);
#375=EDGE_CURVE('',#219,#231,#152,.T.);
#377=EDGE_CURVE('',#246,#231,#147,.T.);
#388=EDGE_CURVE('',#264,#231,#117,.T.);
#390=EDGE_CURVE('',#231,#232,#121,.T.);
#392=EDGE_CURVE('',#220,#232,#166,.T.);
#394=EDGE_CURVE('',#219,#220,#125,.T.);
#404=EDGE_CURVE('',#262,#264,#137,.T.);
#432=EDGE_CURVE('',#220,#232,#157,.T.);
#444=EDGE_CURVE('',#220,#222,#161,.T.);
#446=EDGE_CURVE('',#222,#234,#175,.T.);
#448=EDGE_CURVE('',#232,#234,#170,.T.);
#462=EDGE_CURVE('',#222,#234,#180,.T.);
#476=EDGE_CURVE('',#225,#237,#189,.T.);
#478=EDGE_CURVE('',#225,#237,#198,.T.);
#488=EDGE_CURVE('',#225,#226,#184,.T.);
#491=EDGE_CURVE('',#237,#238,#193,.T.);
#493=EDGE_CURVE('',#226,#238,#212,.T.);
#504=EDGE_CURVE('',#226,#238,#203,.T.);
#516=EDGE_CURVE('',#226,#228,#207,.T.);
#519=EDGE_CURVE('',#238,#240,#216,.T.);
#539=(LENGTH_UNIT()NAMED_UNIT(*)SI_UNIT(.MILLI.,.METRE.));
#541=(NAMED_UNIT(*)PLANE_ANGLE_UNIT()SI_UNIT($,.RADIAN.));
#544=(NAMED_UNIT(*)SI_UNIT($,.STERADIAN.)SOLID_ANGLE_UNIT());
#547=ADVANCED_BREP_SHAPE_REPRESENTATION('',(#538),#546);
#554=PRODUCT_DEFINITION('design','',#553,#550);
#555=PRODUCT_DEFINITION_SHAPE('','SHAPE FOR PBG__STEPVORLAGE.',#554);
#556=SHAPE_DEFINITION_REPRESENTATION(#555,#547);
ENDSEC;
END-ISO-10303-21;
