ISO-10303-21;
HEADER;
FILE_DESCRIPTION((''),'2;1');
FILE_NAME('PBG__STEPVORLAGE','2016-08-09T',('deusss58'),(''),
'PRO/ENGINEER BY PARAMETRIC TECHNOLOGY CORPORATION, 2014430',
'PRO/ENGINEER BY PARAMETRIC TECHNOLOGY CORPORATION, 2014430','');
FILE_SCHEMA(('CONFIG_CONTROL_DESIGN'));
ENDSEC;
DATA;
#1=CARTESIAN_POINT('',(0.E0,0.E0,-2.E0));
#2=DIRECTION('',(0.E0,0.E0,-1.E0));
#3=DIRECTION('',(0.E0,-1.E0,0.E0));
#4=AXIS2_PLACEMENT_3D('',#1,#2,#3);
#6=CARTESIAN_POINT('',(1.000894840742E1,-4.704803690617E-1,0.E0));
#7=CARTESIAN_POINT('',(9.941180850072E0,-4.388798380976E-1,0.E0));
#8=CARTESIAN_POINT('',(9.804116231997E0,-3.749655570268E-1,-7.025990703511E-3));
#9=CARTESIAN_POINT('',(9.589226141852E0,-2.747606623306E-1,-4.192702772074E-2));
#10=CARTESIAN_POINT('',(9.379142171666E0,-1.767968981772E-1,
-1.006746986200E-1));
#11=CARTESIAN_POINT('',(9.177604867833E0,-8.281850999616E-2,
-1.818227879265E-1));
#12=CARTESIAN_POINT('',(9.057504304605E0,-2.681469761428E-2,
-2.455567222965E-1));
#13=CARTESIAN_POINT('',(9.E0,0.E0,-2.796511981578E-1));
#15=CARTESIAN_POINT('',(0.E0,-1.002E1,-2.E0));
#16=DIRECTION('',(1.E0,0.E0,0.E0));
#17=DIRECTION('',(0.E0,1.E0,0.E0));
#18=AXIS2_PLACEMENT_3D('',#15,#16,#17);
#20=CARTESIAN_POINT('',(0.E0,0.E0,-2.E0));
#21=DIRECTION('',(0.E0,0.E0,1.E0));
#22=DIRECTION('',(0.E0,-1.E0,0.E0));
#23=AXIS2_PLACEMENT_3D('',#20,#21,#22);
#25=CARTESIAN_POINT('',(0.E0,1.002E1,-2.E0));
#26=DIRECTION('',(-1.E0,0.E0,0.E0));
#27=DIRECTION('',(0.E0,-1.E0,0.E0));
#28=AXIS2_PLACEMENT_3D('',#25,#26,#27);
#30=CARTESIAN_POINT('',(9.E0,0.E0,-2.796511981578E-1));
#31=CARTESIAN_POINT('',(9.058028610026E0,2.705918524705E-2,-2.452458600294E-1));
#32=CARTESIAN_POINT('',(9.178878606246E0,8.341246397261E-2,-1.812225401983E-1));
#33=CARTESIAN_POINT('',(9.379991528512E0,1.771929597790E-1,-1.004180623711E-1));
#34=CARTESIAN_POINT('',(9.589312303205E0,2.748008400293E-1,-4.194054279061E-2));
#35=CARTESIAN_POINT('',(9.803516678631E0,3.746859807010E-1,-7.097302919731E-3));
#36=CARTESIAN_POINT('',(9.940892849471E0,4.387455412117E-1,0.E0));
#37=CARTESIAN_POINT('',(1.000894840742E1,4.704803690617E-1,0.E0));
#39=DIRECTION('',(0.E0,0.E0,-1.E0));
#40=VECTOR('',#39,1.720348801842E0);
#41=CARTESIAN_POINT('',(9.E0,0.E0,-2.796511981578E-1));
#42=LINE('',#41,#40);
#43=DIRECTION('',(9.063077870367E-1,-4.226182617407E-1,0.E0));
#44=VECTOR('',#43,2.111230571090E0);
#45=CARTESIAN_POINT('',(1.000894840742E1,-4.704803690617E-1,0.E0));
#46=LINE('',#45,#44);
#47=DIRECTION('',(-9.063077870367E-1,-4.226182617407E-1,0.E0));
#48=VECTOR('',#47,2.111230571090E0);
#49=CARTESIAN_POINT('',(1.192237311423E1,1.362724963150E0,0.E0));
#50=LINE('',#49,#48);
#51=CARTESIAN_POINT('',(0.E0,0.E0,0.E0));
#52=DIRECTION('',(0.E0,0.E0,1.E0));
#53=DIRECTION('',(9.988970466484E-1,4.695412864887E-2,0.E0));
#54=AXIS2_PLACEMENT_3D('',#51,#52,#53);
#56=CARTESIAN_POINT('',(0.E0,0.E0,0.E0));
#57=DIRECTION('',(0.E0,0.E0,-1.E0));
#58=DIRECTION('',(0.E0,-1.E0,0.E0));
#59=AXIS2_PLACEMENT_3D('',#56,#57,#58);
#61=CARTESIAN_POINT('',(0.E0,0.E0,0.E0));
#62=DIRECTION('',(0.E0,0.E0,1.E0));
#63=DIRECTION('',(0.E0,-1.E0,0.E0));
#64=AXIS2_PLACEMENT_3D('',#61,#62,#63);
#66=CARTESIAN_POINT('',(0.E0,0.E0,-1.E0));
#67=DIRECTION('',(0.E0,0.E0,-1.E0));
#68=DIRECTION('',(9.935310928521E-1,-1.135604135958E-1,0.E0));
#69=AXIS2_PLACEMENT_3D('',#66,#67,#68);
#71=DIRECTION('',(0.E0,0.E0,-1.E0));
#72=VECTOR('',#71,1.E0);
#73=CARTESIAN_POINT('',(1.192237311423E1,1.362724963150E0,0.E0));
#74=LINE('',#73,#72);
#75=CARTESIAN_POINT('',(0.E0,0.E0,0.E0));
#76=DIRECTION('',(0.E0,0.E0,1.E0));
#77=DIRECTION('',(9.935310928521E-1,1.135604135958E-1,0.E0));
#78=AXIS2_PLACEMENT_3D('',#75,#76,#77);
#80=DIRECTION('',(0.E0,0.E0,-1.E0));
#81=VECTOR('',#80,1.E0);
#82=CARTESIAN_POINT('',(1.192237311423E1,-1.362724963150E0,0.E0));
#83=LINE('',#82,#81);
#84=DIRECTION('',(9.063077870367E-1,-4.226182617407E-1,0.E0));
#85=VECTOR('',#84,2.132852284668E0);
#86=CARTESIAN_POINT('',(9.989352480032E0,-4.613426380534E-1,-1.E0));
#87=LINE('',#86,#85);
#88=DIRECTION('',(-9.063077870367E-1,-4.226182617407E-1,0.E0));
#89=VECTOR('',#88,2.132852284668E0);
#90=CARTESIAN_POINT('',(1.192237311423E1,1.362724963150E0,-1.E0));
#91=LINE('',#90,#89);
#92=CARTESIAN_POINT('',(0.E0,0.E0,-1.E0));
#93=DIRECTION('',(0.E0,0.E0,1.E0));
#94=DIRECTION('',(0.E0,1.E0,0.E0));
#95=AXIS2_PLACEMENT_3D('',#92,#93,#94);
#97=CARTESIAN_POINT('',(9.E0,0.E0,-2.E0));
#98=CARTESIAN_POINT('',(9.E0,0.E0,-1.931774818588E0));
#99=CARTESIAN_POINT('',(9.013623300174E0,-6.352649200675E-3,-1.799033834432E0));
#100=CARTESIAN_POINT('',(9.073250851560E0,-3.415743304872E-2,
-1.607007701542E0));
#101=CARTESIAN_POINT('',(9.167511669458E0,-7.811197429875E-2,
-1.434172490641E0));
#102=CARTESIAN_POINT('',(9.291888223258E0,-1.361097138303E-1,
-1.284116818827E0));
#103=CARTESIAN_POINT('',(9.441327840575E0,-2.057945518173E-1,
-1.161684449011E0));
#104=CARTESIAN_POINT('',(9.610879178964E0,-2.848576393585E-1,
-1.070233961192E0));
#105=CARTESIAN_POINT('',(9.795697361280E0,-3.710397731388E-1,
-1.013204040499E0));
#106=CARTESIAN_POINT('',(9.923702174335E0,-4.307293977468E-1,-1.E0));
#107=CARTESIAN_POINT('',(9.989352480032E0,-4.613426380534E-1,-1.E0));
#109=CARTESIAN_POINT('',(0.E0,0.E0,-2.E0));
#110=DIRECTION('',(0.E0,0.E0,1.E0));
#111=DIRECTION('',(0.E0,-1.E0,0.E0));
#112=AXIS2_PLACEMENT_3D('',#109,#110,#111);
#114=CARTESIAN_POINT('',(0.E0,0.E0,-2.E0));
#115=DIRECTION('',(0.E0,0.E0,1.E0));
#116=DIRECTION('',(1.E0,0.E0,0.E0));
#117=AXIS2_PLACEMENT_3D('',#114,#115,#116);
#119=DIRECTION('',(0.E0,0.E0,-1.E0));
#120=VECTOR('',#119,9.4E0);
#121=CARTESIAN_POINT('',(0.E0,9.E0,-2.E0));
#122=LINE('',#121,#120);
#123=DIRECTION('',(0.E0,0.E0,-1.E0));
#124=VECTOR('',#123,9.4E0);
#125=CARTESIAN_POINT('',(0.E0,-9.E0,-2.E0));
#126=LINE('',#125,#124);
#127=CARTESIAN_POINT('',(9.989352480032E0,4.613426380534E-1,-1.E0));
#128=CARTESIAN_POINT('',(9.923664590585E0,4.307118721563E-1,-1.E0));
#129=CARTESIAN_POINT('',(9.795569641788E0,3.709802165614E-1,-1.013216492784E0));
#130=CARTESIAN_POINT('',(9.610517006182E0,2.846887554168E-1,-1.070366442268E0));
#131=CARTESIAN_POINT('',(9.440795628489E0,2.055463772456E-1,-1.162026718762E0));
#132=CARTESIAN_POINT('',(9.291363044291E0,1.358648188562E-1,-1.284638742507E0));
#133=CARTESIAN_POINT('',(9.167159348158E0,7.794768417823E-2,-1.434714827287E0));
#134=CARTESIAN_POINT('',(9.073116578301E0,3.409482039985E-2,-1.607375250606E0));
#135=CARTESIAN_POINT('',(9.013613688123E0,6.348167027266E-3,-1.799150425473E0));
#136=CARTESIAN_POINT('',(9.E0,0.E0,-1.931807226647E0));
#137=CARTESIAN_POINT('',(9.E0,0.E0,-2.E0));
#139=CARTESIAN_POINT('',(0.E0,0.E0,-1.E0));
#140=DIRECTION('',(0.E0,0.E0,1.E0));
#141=DIRECTION('',(9.989352480032E-1,4.613426380534E-2,0.E0));
#142=AXIS2_PLACEMENT_3D('',#139,#140,#141);
#144=CARTESIAN_POINT('',(0.E0,1.E1,-2.E0));
#145=DIRECTION('',(1.E0,0.E0,0.E0));
#146=DIRECTION('',(0.E0,0.E0,1.E0));
#147=AXIS2_PLACEMENT_3D('',#144,#145,#146);
#149=CARTESIAN_POINT('',(0.E0,0.E0,-2.E0));
#150=DIRECTION('',(0.E0,0.E0,-1.E0));
#151=DIRECTION('',(0.E0,-1.E0,0.E0));
#152=AXIS2_PLACEMENT_3D('',#149,#150,#151);
#154=CARTESIAN_POINT('',(0.E0,0.E0,-1.14E1));
#155=DIRECTION('',(0.E0,0.E0,-1.E0));
#156=DIRECTION('',(0.E0,-1.E0,0.E0));
#157=AXIS2_PLACEMENT_3D('',#154,#155,#156);
#159=DIRECTION('',(0.E0,3.420201433257E-1,-9.396926207859E-1));
#160=VECTOR('',#159,6.385066634855E-1);
#161=CARTESIAN_POINT('',(0.E0,-9.E0,-1.14E1));
#162=LINE('',#161,#160);
#163=CARTESIAN_POINT('',(0.E0,0.E0,-1.14E1));
#164=DIRECTION('',(0.E0,0.E0,1.E0));
#165=DIRECTION('',(0.E0,-1.E0,0.E0));
#166=AXIS2_PLACEMENT_3D('',#163,#164,#165);
#168=DIRECTION('',(0.E0,-3.420201433257E-1,-9.396926207859E-1));
#169=VECTOR('',#168,6.385066634855E-1);
#170=CARTESIAN_POINT('',(0.E0,9.E0,-1.14E1));
#171=LINE('',#170,#169);
#172=CARTESIAN_POINT('',(0.E0,0.E0,-1.2E1));
#173=DIRECTION('',(0.E0,0.E0,-1.E0));
#174=DIRECTION('',(0.E0,-1.E0,0.E0));
#175=AXIS2_PLACEMENT_3D('',#172,#173,#174);
#177=CARTESIAN_POINT('',(0.E0,0.E0,-1.2E1));
#178=DIRECTION('',(0.E0,0.E0,1.E0));
#179=DIRECTION('',(0.E0,-1.E0,0.E0));
#180=AXIS2_PLACEMENT_3D('',#177,#178,#179);
#182=DIRECTION('',(0.E0,7.071067811866E-1,7.071067811865E-1));
#183=VECTOR('',#182,4.949747468306E-1);
#184=CARTESIAN_POINT('',(0.E0,-8.37E0,-1.2E1));
#185=LINE('',#184,#183);
#186=CARTESIAN_POINT('',(0.E0,0.E0,-1.2E1));
#187=DIRECTION('',(0.E0,0.E0,1.E0));
#188=DIRECTION('',(0.E0,-1.E0,0.E0));
#189=AXIS2_PLACEMENT_3D('',#186,#187,#188);
#191=DIRECTION('',(0.E0,-7.071067811866E-1,7.071067811865E-1));
#192=VECTOR('',#191,4.949747468306E-1);
#193=CARTESIAN_POINT('',(0.E0,8.37E0,-1.2E1));
#194=LINE('',#193,#192);
#195=CARTESIAN_POINT('',(0.E0,0.E0,-1.2E1));
#196=DIRECTION('',(0.E0,0.E0,-1.E0));
#197=DIRECTION('',(0.E0,-1.E0,0.E0));
#198=AXIS2_PLACEMENT_3D('',#195,#196,#197);
#200=CARTESIAN_POINT('',(0.E0,0.E0,-1.165E1));
#201=DIRECTION('',(0.E0,0.E0,-1.E0));
#202=DIRECTION('',(0.E0,-1.E0,0.E0));
#203=AXIS2_PLACEMENT_3D('',#200,#201,#202);
#205=DIRECTION('',(0.E0,0.E0,1.E0));
#206=VECTOR('',#205,9.65E0);
#207=CARTESIAN_POINT('',(0.E0,-8.02E0,-1.165E1));
#208=LINE('',#207,#206);
#209=CARTESIAN_POINT('',(0.E0,0.E0,-1.165E1));
#210=DIRECTION('',(0.E0,0.E0,1.E0));
#211=DIRECTION('',(0.E0,-1.E0,0.E0));
#212=AXIS2_PLACEMENT_3D('',#209,#210,#211);
#214=DIRECTION('',(0.E0,0.E0,1.E0));
#215=VECTOR('',#214,9.65E0);
#216=CARTESIAN_POINT('',(0.E0,8.02E0,-1.165E1));
#217=LINE('',#216,#215);
#218=CARTESIAN_POINT('',(0.E0,-9.E0,-2.E0));
#219=CARTESIAN_POINT('',(0.E0,-9.E0,-1.14E1));
#220=VERTEX_POINT('',#218);
#221=VERTEX_POINT('',#219);
#222=CARTESIAN_POINT('',(0.E0,-8.781617859440E0,-1.2E1));
#223=VERTEX_POINT('',#222);
#224=CARTESIAN_POINT('',(0.E0,-8.37E0,-1.2E1));
#225=CARTESIAN_POINT('',(0.E0,-8.02E0,-1.165E1));
#226=VERTEX_POINT('',#224);
#227=VERTEX_POINT('',#225);
#228=CARTESIAN_POINT('',(0.E0,-8.02E0,-2.E0));
#229=VERTEX_POINT('',#228);
#230=CARTESIAN_POINT('',(0.E0,9.E0,-2.E0));
#231=CARTESIAN_POINT('',(0.E0,9.E0,-1.14E1));
#232=VERTEX_POINT('',#230);
#233=VERTEX_POINT('',#231);
#234=CARTESIAN_POINT('',(0.E0,8.781617859440E0,-1.2E1));
#235=VERTEX_POINT('',#234);
#236=CARTESIAN_POINT('',(0.E0,8.37E0,-1.2E1));
#237=CARTESIAN_POINT('',(0.E0,8.02E0,-1.165E1));
#238=VERTEX_POINT('',#236);
#239=VERTEX_POINT('',#237);
#240=CARTESIAN_POINT('',(0.E0,8.02E0,-2.E0));
#241=VERTEX_POINT('',#240);
#242=CARTESIAN_POINT('',(0.E0,-1.002E1,0.E0));
#243=VERTEX_POINT('',#242);
#244=CARTESIAN_POINT('',(0.E0,1.002E1,0.E0));
#245=VERTEX_POINT('',#244);
#246=CARTESIAN_POINT('',(0.E0,1.E1,-1.E0));
#247=VERTEX_POINT('',#246);
#248=CARTESIAN_POINT('',(1.000894840742E1,-4.704803690617E-1,0.E0));
#249=CARTESIAN_POINT('',(1.192237311423E1,-1.362724963150E0,0.E0));
#250=VERTEX_POINT('',#248);
#251=VERTEX_POINT('',#249);
#252=CARTESIAN_POINT('',(1.192237311423E1,1.362724963150E0,0.E0));
#253=CARTESIAN_POINT('',(1.000894840742E1,4.704803690617E-1,0.E0));
#254=VERTEX_POINT('',#252);
#255=VERTEX_POINT('',#253);
#256=CARTESIAN_POINT('',(9.989352480032E0,-4.613426380534E-1,-1.E0));
#257=CARTESIAN_POINT('',(1.192237311423E1,-1.362724963150E0,-1.E0));
#258=VERTEX_POINT('',#256);
#259=VERTEX_POINT('',#257);
#260=CARTESIAN_POINT('',(1.192237311423E1,1.362724963150E0,-1.E0));
#261=CARTESIAN_POINT('',(9.989352480032E0,4.613426380534E-1,-1.E0));
#262=VERTEX_POINT('',#260);
#263=VERTEX_POINT('',#261);
#264=VERTEX_POINT('',#13);
#265=VERTEX_POINT('',#97);
#266=CARTESIAN_POINT('',(0.E0,0.E0,-2.E0));
#267=DIRECTION('',(0.E0,0.E0,-1.E0));
#268=DIRECTION('',(0.E0,-1.E0,0.E0));
#269=AXIS2_PLACEMENT_3D('',#266,#267,#268);
#270=TOROIDAL_SURFACE('',#269,1.002E1,2.E0);
#272=ORIENTED_EDGE('',*,*,#271,.T.);
#274=ORIENTED_EDGE('',*,*,#273,.T.);
#276=ORIENTED_EDGE('',*,*,#275,.F.);
#278=ORIENTED_EDGE('',*,*,#277,.F.);
#279=EDGE_LOOP('',(#272,#274,#276,#278));
#280=FACE_OUTER_BOUND('',#279,.F.);
#281=ADVANCED_FACE('',(#280),#270,.T.);
#282=CARTESIAN_POINT('',(0.E0,0.E0,-2.E0));
#283=DIRECTION('',(0.E0,0.E0,-1.E0));
#284=DIRECTION('',(0.E0,-1.E0,0.E0));
#285=AXIS2_PLACEMENT_3D('',#282,#283,#284);
#286=TOROIDAL_SURFACE('',#285,1.002E1,2.E0);
#288=ORIENTED_EDGE('',*,*,#287,.F.);
#290=ORIENTED_EDGE('',*,*,#289,.F.);
#291=ORIENTED_EDGE('',*,*,#271,.F.);
#293=ORIENTED_EDGE('',*,*,#292,.T.);
#294=ORIENTED_EDGE('',*,*,#275,.T.);
#296=ORIENTED_EDGE('',*,*,#295,.F.);
#298=ORIENTED_EDGE('',*,*,#297,.F.);
#299=EDGE_LOOP('',(#288,#290,#291,#293,#294,#296,#298));
#300=FACE_OUTER_BOUND('',#299,.F.);
#301=ADVANCED_FACE('',(#300),#286,.T.);
#302=CARTESIAN_POINT('',(9.E0,0.E0,0.E0));
#303=DIRECTION('',(-4.226182617407E-1,-9.063077870367E-1,0.E0));
#304=DIRECTION('',(9.063077870367E-1,-4.226182617407E-1,0.E0));
#305=AXIS2_PLACEMENT_3D('',#302,#303,#304);
#306=PLANE('',#305);
#308=ORIENTED_EDGE('',*,*,#307,.F.);
#309=ORIENTED_EDGE('',*,*,#287,.T.);
#311=ORIENTED_EDGE('',*,*,#310,.T.);
#313=ORIENTED_EDGE('',*,*,#312,.T.);
#315=ORIENTED_EDGE('',*,*,#314,.T.);
#317=ORIENTED_EDGE('',*,*,#316,.F.);
#318=EDGE_LOOP('',(#308,#309,#311,#313,#315,#317));
#319=FACE_OUTER_BOUND('',#318,.F.);
#320=ADVANCED_FACE('',(#319),#306,.F.);
#321=CARTESIAN_POINT('',(0.E0,0.E0,0.E0));
#322=DIRECTION('',(0.E0,0.E0,-1.E0));
#323=DIRECTION('',(0.E0,-1.E0,0.E0));
#324=AXIS2_PLACEMENT_3D('',#321,#322,#323);
#325=PLANE('',#324);
#326=ORIENTED_EDGE('',*,*,#307,.T.);
#328=ORIENTED_EDGE('',*,*,#327,.F.);
#330=ORIENTED_EDGE('',*,*,#329,.T.);
#331=ORIENTED_EDGE('',*,*,#295,.T.);
#332=ORIENTED_EDGE('',*,*,#273,.F.);
#333=ORIENTED_EDGE('',*,*,#289,.T.);
#334=EDGE_LOOP('',(#326,#328,#330,#331,#332,#333));
#335=FACE_OUTER_BOUND('',#334,.F.);
#336=ADVANCED_FACE('',(#335),#325,.F.);
#337=CARTESIAN_POINT('',(0.E0,0.E0,6.E-1));
#338=DIRECTION('',(0.E0,0.E0,-1.E0));
#339=DIRECTION('',(0.E0,-1.E0,0.E0));
#340=AXIS2_PLACEMENT_3D('',#337,#338,#339);
#341=CYLINDRICAL_SURFACE('',#340,1.2E1);
#343=ORIENTED_EDGE('',*,*,#342,.T.);
#345=ORIENTED_EDGE('',*,*,#344,.F.);
#346=ORIENTED_EDGE('',*,*,#327,.T.);
#347=ORIENTED_EDGE('',*,*,#316,.T.);
#348=EDGE_LOOP('',(#343,#345,#346,#347));
#349=FACE_OUTER_BOUND('',#348,.F.);
#350=ADVANCED_FACE('',(#349),#341,.T.);
#351=CARTESIAN_POINT('',(0.E0,0.E0,-1.E0));
#352=DIRECTION('',(0.E0,0.E0,-1.E0));
#353=DIRECTION('',(0.E0,-1.E0,0.E0));
#354=AXIS2_PLACEMENT_3D('',#351,#352,#353);
#355=PLANE('',#354);
#356=ORIENTED_EDGE('',*,*,#314,.F.);
#358=ORIENTED_EDGE('',*,*,#357,.F.);
#360=ORIENTED_EDGE('',*,*,#359,.F.);
#362=ORIENTED_EDGE('',*,*,#361,.F.);
#363=ORIENTED_EDGE('',*,*,#342,.F.);
#364=EDGE_LOOP('',(#356,#358,#360,#362,#363));
#365=FACE_OUTER_BOUND('',#364,.F.);
#366=ADVANCED_FACE('',(#365),#355,.T.);
#367=CARTESIAN_POINT('',(0.E0,0.E0,-2.E0));
#368=DIRECTION('',(0.E0,0.E0,-1.E0));
#369=DIRECTION('',(0.E0,-1.E0,0.E0));
#370=AXIS2_PLACEMENT_3D('',#367,#368,#369);
#371=TOROIDAL_SURFACE('',#370,1.E1,1.E0);
#372=ORIENTED_EDGE('',*,*,#357,.T.);
#373=ORIENTED_EDGE('',*,*,#312,.F.);
#375=ORIENTED_EDGE('',*,*,#374,.F.);
#377=ORIENTED_EDGE('',*,*,#376,.T.);
#379=ORIENTED_EDGE('',*,*,#378,.F.);
#380=EDGE_LOOP('',(#372,#373,#375,#377,#379));
#381=FACE_OUTER_BOUND('',#380,.F.);
#382=ADVANCED_FACE('',(#381),#371,.F.);
#383=CARTESIAN_POINT('',(0.E0,0.E0,6.E-1));
#384=DIRECTION('',(0.E0,0.E0,-1.E0));
#385=DIRECTION('',(0.E0,-1.E0,0.E0));
#386=AXIS2_PLACEMENT_3D('',#383,#384,#385);
#387=CYLINDRICAL_SURFACE('',#386,9.E0);
#388=ORIENTED_EDGE('',*,*,#374,.T.);
#390=ORIENTED_EDGE('',*,*,#389,.T.);
#392=ORIENTED_EDGE('',*,*,#391,.T.);
#394=ORIENTED_EDGE('',*,*,#393,.F.);
#396=ORIENTED_EDGE('',*,*,#395,.F.);
#397=EDGE_LOOP('',(#388,#390,#392,#394,#396));
#398=FACE_OUTER_BOUND('',#397,.F.);
#399=ADVANCED_FACE('',(#398),#387,.T.);
#400=CARTESIAN_POINT('',(0.E0,0.E0,-2.E0));
#401=DIRECTION('',(0.E0,0.E0,-1.E0));
#402=DIRECTION('',(0.E0,-1.E0,0.E0));
#403=AXIS2_PLACEMENT_3D('',#400,#401,#402);
#404=TOROIDAL_SURFACE('',#403,1.E1,1.E0);
#406=ORIENTED_EDGE('',*,*,#405,.F.);
#407=ORIENTED_EDGE('',*,*,#359,.T.);
#408=ORIENTED_EDGE('',*,*,#378,.T.);
#409=ORIENTED_EDGE('',*,*,#389,.F.);
#410=EDGE_LOOP('',(#406,#407,#408,#409));
#411=FACE_OUTER_BOUND('',#410,.F.);
#412=ADVANCED_FACE('',(#411),#404,.F.);
#413=CARTESIAN_POINT('',(1.192237311423E1,1.362724963150E0,0.E0));
#414=DIRECTION('',(-4.226182617407E-1,9.063077870367E-1,0.E0));
#415=DIRECTION('',(-9.063077870367E-1,-4.226182617407E-1,0.E0));
#416=AXIS2_PLACEMENT_3D('',#413,#414,#415);
#417=PLANE('',#416);
#418=ORIENTED_EDGE('',*,*,#329,.F.);
#419=ORIENTED_EDGE('',*,*,#344,.T.);
#420=ORIENTED_EDGE('',*,*,#361,.T.);
#421=ORIENTED_EDGE('',*,*,#405,.T.);
#422=ORIENTED_EDGE('',*,*,#310,.F.);
#423=ORIENTED_EDGE('',*,*,#297,.T.);
#424=EDGE_LOOP('',(#418,#419,#420,#421,#422,#423));
#425=FACE_OUTER_BOUND('',#424,.F.);
#426=ADVANCED_FACE('',(#425),#417,.F.);
#427=CARTESIAN_POINT('',(0.E0,0.E0,6.E-1));
#428=DIRECTION('',(0.E0,0.E0,-1.E0));
#429=DIRECTION('',(0.E0,-1.E0,0.E0));
#430=AXIS2_PLACEMENT_3D('',#427,#428,#429);
#431=CYLINDRICAL_SURFACE('',#430,9.E0);
#432=ORIENTED_EDGE('',*,*,#395,.T.);
#434=ORIENTED_EDGE('',*,*,#433,.T.);
#435=ORIENTED_EDGE('',*,*,#391,.F.);
#436=ORIENTED_EDGE('',*,*,#376,.F.);
#437=EDGE_LOOP('',(#432,#434,#435,#436));
#438=FACE_OUTER_BOUND('',#437,.F.);
#439=ADVANCED_FACE('',(#438),#431,.T.);
#440=CARTESIAN_POINT('',(0.E0,0.E0,-1.17E1));
#441=DIRECTION('',(0.E0,0.E0,1.E0));
#442=DIRECTION('',(0.E0,1.E0,0.E0));
#443=AXIS2_PLACEMENT_3D('',#440,#441,#442);
#444=CONICAL_SURFACE('',#443,8.890808929720E0,2.E1);
#446=ORIENTED_EDGE('',*,*,#445,.T.);
#448=ORIENTED_EDGE('',*,*,#447,.T.);
#450=ORIENTED_EDGE('',*,*,#449,.F.);
#451=ORIENTED_EDGE('',*,*,#433,.F.);
#452=EDGE_LOOP('',(#446,#448,#450,#451));
#453=FACE_OUTER_BOUND('',#452,.F.);
#454=ADVANCED_FACE('',(#453),#444,.T.);
#455=CARTESIAN_POINT('',(0.E0,0.E0,-1.17E1));
#456=DIRECTION('',(0.E0,0.E0,1.E0));
#457=DIRECTION('',(0.E0,1.E0,0.E0));
#458=AXIS2_PLACEMENT_3D('',#455,#456,#457);
#459=CONICAL_SURFACE('',#458,8.890808929720E0,2.E1);
#460=ORIENTED_EDGE('',*,*,#445,.F.);
#461=ORIENTED_EDGE('',*,*,#393,.T.);
#462=ORIENTED_EDGE('',*,*,#449,.T.);
#464=ORIENTED_EDGE('',*,*,#463,.F.);
#465=EDGE_LOOP('',(#460,#461,#462,#464));
#466=FACE_OUTER_BOUND('',#465,.F.);
#467=ADVANCED_FACE('',(#466),#459,.T.);
#468=CARTESIAN_POINT('',(0.E0,0.E0,-1.2E1));
#469=DIRECTION('',(0.E0,0.E0,-1.E0));
#470=DIRECTION('',(0.E0,-1.E0,0.E0));
#471=AXIS2_PLACEMENT_3D('',#468,#469,#470);
#472=PLANE('',#471);
#473=ORIENTED_EDGE('',*,*,#447,.F.);
#474=ORIENTED_EDGE('',*,*,#463,.T.);
#475=EDGE_LOOP('',(#473,#474));
#476=FACE_OUTER_BOUND('',#475,.F.);
#478=ORIENTED_EDGE('',*,*,#477,.F.);
#480=ORIENTED_EDGE('',*,*,#479,.T.);
#481=EDGE_LOOP('',(#478,#480));
#482=FACE_BOUND('',#481,.F.);
#483=ADVANCED_FACE('',(#476,#482),#472,.T.);
#484=CARTESIAN_POINT('',(0.E0,0.E0,-1.1825E1));
#485=DIRECTION('',(0.E0,0.E0,-1.E0));
#486=DIRECTION('',(0.E0,-1.E0,0.E0));
#487=AXIS2_PLACEMENT_3D('',#484,#485,#486);
#488=CONICAL_SURFACE('',#487,8.195E0,4.5E1);
#490=ORIENTED_EDGE('',*,*,#489,.F.);
#491=ORIENTED_EDGE('',*,*,#477,.T.);
#493=ORIENTED_EDGE('',*,*,#492,.T.);
#495=ORIENTED_EDGE('',*,*,#494,.F.);
#496=EDGE_LOOP('',(#490,#491,#493,#495));
#497=FACE_OUTER_BOUND('',#496,.F.);
#498=ADVANCED_FACE('',(#497),#488,.F.);
#499=CARTESIAN_POINT('',(0.E0,0.E0,-1.1825E1));
#500=DIRECTION('',(0.E0,0.E0,-1.E0));
#501=DIRECTION('',(0.E0,-1.E0,0.E0));
#502=AXIS2_PLACEMENT_3D('',#499,#500,#501);
#503=CONICAL_SURFACE('',#502,8.195E0,4.5E1);
#504=ORIENTED_EDGE('',*,*,#489,.T.);
#506=ORIENTED_EDGE('',*,*,#505,.T.);
#507=ORIENTED_EDGE('',*,*,#492,.F.);
#508=ORIENTED_EDGE('',*,*,#479,.F.);
#509=EDGE_LOOP('',(#504,#506,#507,#508));
#510=FACE_OUTER_BOUND('',#509,.F.);
#511=ADVANCED_FACE('',(#510),#503,.F.);
#512=CARTESIAN_POINT('',(0.E0,0.E0,6.E-1));
#513=DIRECTION('',(0.E0,0.E0,-1.E0));
#514=DIRECTION('',(0.E0,-1.E0,0.E0));
#515=AXIS2_PLACEMENT_3D('',#512,#513,#514);
#516=CYLINDRICAL_SURFACE('',#515,8.02E0);
#518=ORIENTED_EDGE('',*,*,#517,.T.);
#519=ORIENTED_EDGE('',*,*,#277,.T.);
#521=ORIENTED_EDGE('',*,*,#520,.F.);
#522=ORIENTED_EDGE('',*,*,#505,.F.);
#523=EDGE_LOOP('',(#518,#519,#521,#522));
#524=FACE_OUTER_BOUND('',#523,.F.);
#525=ADVANCED_FACE('',(#524),#516,.F.);
#526=CARTESIAN_POINT('',(0.E0,0.E0,6.E-1));
#527=DIRECTION('',(0.E0,0.E0,-1.E0));
#528=DIRECTION('',(0.E0,-1.E0,0.E0));
#529=AXIS2_PLACEMENT_3D('',#526,#527,#528);
#530=CYLINDRICAL_SURFACE('',#529,8.02E0);
#531=ORIENTED_EDGE('',*,*,#517,.F.);
#532=ORIENTED_EDGE('',*,*,#494,.T.);
#533=ORIENTED_EDGE('',*,*,#520,.T.);
#534=ORIENTED_EDGE('',*,*,#292,.F.);
#535=EDGE_LOOP('',(#531,#532,#533,#534));
#536=FACE_OUTER_BOUND('',#535,.F.);
#537=ADVANCED_FACE('',(#536),#530,.F.);
#538=CLOSED_SHELL('',(#281,#301,#320,#336,#350,#366,#382,#399,#412,#426,#439,
#454,#467,#483,#498,#511,#525,#537));
#539=MANIFOLD_SOLID_BREP('',#538);
#541=DIMENSIONAL_EXPONENTS(0.E0,0.E0,0.E0,0.E0,0.E0,0.E0,0.E0);
#543=PLANE_ANGLE_MEASURE_WITH_UNIT(PLANE_ANGLE_MEASURE(1.745329251994E-2),#542);
#544=(CONVERSION_BASED_UNIT('DEGREE',#543)NAMED_UNIT(*)PLANE_ANGLE_UNIT());
#546=UNCERTAINTY_MEASURE_WITH_UNIT(LENGTH_MEASURE(3.600553310396E-3),#540,
'closure',
'Maximum model space distance between geometric entities at asserted connectivities');
#547=(GEOMETRIC_REPRESENTATION_CONTEXT(3)GLOBAL_UNCERTAINTY_ASSIGNED_CONTEXT((
#546))GLOBAL_UNIT_ASSIGNED_CONTEXT((#540,#544,#545))REPRESENTATION_CONTEXT
('ID1','3'));
#549=APPLICATION_CONTEXT(
'CONFIGURATION CONTROLLED 3D DESIGNS OF MECHANICAL PARTS AND ASSEMBLIES');
#550=APPLICATION_PROTOCOL_DEFINITION('international standard',
'config_control_design',1994,#549);
#551=DESIGN_CONTEXT('',#549,'design');
#552=MECHANICAL_CONTEXT('',#549,'mechanical');
#553=PRODUCT('PBG__STEPVORLAGE','PBG__STEPVORLAGE','NOT SPECIFIED',(#552));
#554=PRODUCT_DEFINITION_FORMATION_WITH_SPECIFIED_SOURCE('1','LAST_VERSION',#553,
.MADE.);
#558=PRODUCT_CATEGORY('part','');
#559=PRODUCT_RELATED_PRODUCT_CATEGORY('detail','',(#553));
#560=PRODUCT_CATEGORY_RELATIONSHIP('','',#558,#559);
#561=SECURITY_CLASSIFICATION_LEVEL('unclassified');
#562=SECURITY_CLASSIFICATION('','',#561);
#563=CC_DESIGN_SECURITY_CLASSIFICATION(#562,(#554));
#564=APPROVAL_STATUS('approved');
#565=APPROVAL(#564,'');
#566=CC_DESIGN_APPROVAL(#565,(#562,#554,#555));
#567=CALENDAR_DATE(116,9,8);
#568=COORDINATED_UNIVERSAL_TIME_OFFSET(2,0,.AHEAD.);
#569=LOCAL_TIME(9,58,3.E0,#568);
#570=DATE_AND_TIME(#567,#569);
#571=APPROVAL_DATE_TIME(#570,#565);
#572=DATE_TIME_ROLE('creation_date');
#573=CC_DESIGN_DATE_AND_TIME_ASSIGNMENT(#570,#572,(#555));
#574=DATE_TIME_ROLE('classification_date');
#575=CC_DESIGN_DATE_AND_TIME_ASSIGNMENT(#570,#574,(#562));
#576=PERSON('UNSPECIFIED','UNSPECIFIED',$,$,$,$);
#577=ORGANIZATION('UNSPECIFIED','UNSPECIFIED','UNSPECIFIED');
#578=PERSON_AND_ORGANIZATION(#576,#577);
#579=APPROVAL_ROLE('approver');
#580=APPROVAL_PERSON_ORGANIZATION(#578,#565,#579);
#581=PERSON_AND_ORGANIZATION_ROLE('creator');
#582=CC_DESIGN_PERSON_AND_ORGANIZATION_ASSIGNMENT(#578,#581,(#554,#555));
#583=PERSON_AND_ORGANIZATION_ROLE('design_supplier');
#584=CC_DESIGN_PERSON_AND_ORGANIZATION_ASSIGNMENT(#578,#583,(#554));
#585=PERSON_AND_ORGANIZATION_ROLE('classification_officer');
#586=CC_DESIGN_PERSON_AND_ORGANIZATION_ASSIGNMENT(#578,#585,(#562));
#587=PERSON_AND_ORGANIZATION_ROLE('design_owner');
#588=CC_DESIGN_PERSON_AND_ORGANIZATION_ASSIGNMENT(#578,#587,(#553));
#5=CIRCLE('',#4,8.02E0);
#14=B_SPLINE_CURVE_WITH_KNOTS('',3,(#6,#7,#8,#9,#10,#11,#12,#13),.UNSPECIFIED.,
.F.,.F.,(4,1,1,1,1,4),(0.E0,2.E-1,4.E-1,6.E-1,8.E-1,1.E0),.UNSPECIFIED.);
#19=CIRCLE('',#18,2.E0);
#24=CIRCLE('',#23,8.02E0);
#29=CIRCLE('',#28,2.E0);
#38=B_SPLINE_CURVE_WITH_KNOTS('',3,(#30,#31,#32,#33,#34,#35,#36,#37),
.UNSPECIFIED.,.F.,.F.,(4,1,1,1,1,4),(0.E0,2.E-1,4.E-1,6.E-1,8.E-1,1.E0),
.UNSPECIFIED.);
#55=CIRCLE('',#54,1.002E1);
#60=CIRCLE('',#59,1.002E1);
#65=CIRCLE('',#64,1.002E1);
#70=CIRCLE('',#69,1.2E1);
#79=CIRCLE('',#78,1.2E1);
#96=CIRCLE('',#95,1.E1);
#108=B_SPLINE_CURVE_WITH_KNOTS('',3,(#97,#98,#99,#100,#101,#102,#103,#104,#105,
#106,#107),.UNSPECIFIED.,.F.,.F.,(4,1,1,1,1,1,1,1,4),(0.E0,1.25E-1,2.5E-1,
3.75E-1,5.E-1,6.25E-1,7.5E-1,8.75E-1,1.E0),.UNSPECIFIED.);
#113=CIRCLE('',#112,9.E0);
#118=CIRCLE('',#117,9.E0);
#138=B_SPLINE_CURVE_WITH_KNOTS('',3,(#127,#128,#129,#130,#131,#132,#133,#134,
#135,#136,#137),.UNSPECIFIED.,.F.,.F.,(4,1,1,1,1,1,1,1,4),(0.E0,1.25E-1,2.5E-1,
3.75E-1,5.E-1,6.25E-1,7.5E-1,8.75E-1,1.E0),.UNSPECIFIED.);
#143=CIRCLE('',#142,1.E1);
#148=CIRCLE('',#147,1.E0);
#153=CIRCLE('',#152,9.E0);
#158=CIRCLE('',#157,9.E0);
#167=CIRCLE('',#166,9.E0);
#176=CIRCLE('',#175,8.781617859440E0);
#181=CIRCLE('',#180,8.781617859440E0);
#190=CIRCLE('',#189,8.37E0);
#199=CIRCLE('',#198,8.37E0);
#204=CIRCLE('',#203,8.02E0);
#213=CIRCLE('',#212,8.02E0);
#271=EDGE_CURVE('',#229,#243,#19,.T.);
#273=EDGE_CURVE('',#243,#245,#60,.T.);
#275=EDGE_CURVE('',#241,#245,#29,.T.);
#277=EDGE_CURVE('',#229,#241,#5,.T.);
#287=EDGE_CURVE('',#250,#264,#14,.T.);
#289=EDGE_CURVE('',#243,#250,#65,.T.);
#292=EDGE_CURVE('',#229,#241,#24,.T.);
#295=EDGE_CURVE('',#255,#245,#55,.T.);
#297=EDGE_CURVE('',#264,#255,#38,.T.);
#307=EDGE_CURVE('',#250,#251,#46,.T.);
#310=EDGE_CURVE('',#264,#265,#42,.T.);
#312=EDGE_CURVE('',#265,#258,#108,.T.);
#314=EDGE_CURVE('',#258,#259,#87,.T.);
#316=EDGE_CURVE('',#251,#259,#83,.T.);
#327=EDGE_CURVE('',#254,#251,#79,.T.);
#329=EDGE_CURVE('',#254,#255,#50,.T.);
#342=EDGE_CURVE('',#259,#262,#70,.T.);
#344=EDGE_CURVE('',#254,#262,#74,.T.);
#357=EDGE_CURVE('',#247,#258,#96,.T.);
#359=EDGE_CURVE('',#263,#247,#143,.T.);
#361=EDGE_CURVE('',#262,#263,#91,.T.);
#374=EDGE_CURVE('',#220,#265,#113,.T.);
#376=EDGE_CURVE('',#220,#232,#153,.T.);
#378=EDGE_CURVE('',#247,#232,#148,.T.);
#389=EDGE_CURVE('',#265,#232,#118,.T.);
#391=EDGE_CURVE('',#232,#233,#122,.T.);
#393=EDGE_CURVE('',#221,#233,#167,.T.);
#395=EDGE_CURVE('',#220,#221,#126,.T.);
#405=EDGE_CURVE('',#263,#265,#138,.T.);
#433=EDGE_CURVE('',#221,#233,#158,.T.);
#445=EDGE_CURVE('',#221,#223,#162,.T.);
#447=EDGE_CURVE('',#223,#235,#176,.T.);
#449=EDGE_CURVE('',#233,#235,#171,.T.);
#463=EDGE_CURVE('',#223,#235,#181,.T.);
#477=EDGE_CURVE('',#226,#238,#190,.T.);
#479=EDGE_CURVE('',#226,#238,#199,.T.);
#489=EDGE_CURVE('',#226,#227,#185,.T.);
#492=EDGE_CURVE('',#238,#239,#194,.T.);
#494=EDGE_CURVE('',#227,#239,#213,.T.);
#505=EDGE_CURVE('',#227,#239,#204,.T.);
#517=EDGE_CURVE('',#227,#229,#208,.T.);
#520=EDGE_CURVE('',#239,#241,#217,.T.);
#540=(LENGTH_UNIT()NAMED_UNIT(*)SI_UNIT(.MILLI.,.METRE.));
#542=(NAMED_UNIT(*)PLANE_ANGLE_UNIT()SI_UNIT($,.RADIAN.));
#545=(NAMED_UNIT(*)SI_UNIT($,.STERADIAN.)SOLID_ANGLE_UNIT());
#548=ADVANCED_BREP_SHAPE_REPRESENTATION('',(#539),#547);
#555=PRODUCT_DEFINITION('design','',#554,#551);
#556=PRODUCT_DEFINITION_SHAPE('','SHAPE FOR PBG__STEPVORLAGE.',#555);
#557=SHAPE_DEFINITION_REPRESENTATION(#556,#548);
ENDSEC;
END-ISO-10303-21;
