ISO-10303-21;
HEADER;
FILE_DESCRIPTION((''),'2;1');
FILE_NAME('PBG__STEPVORLAGE','2016-08-09T',('deusss58'),(''),
'PRO/ENGINEER BY PARAMETRIC TECHNOLOGY CORPORATION, 2014430',
'PRO/ENGINEER BY PARAMETRIC TECHNOLOGY CORPORATION, 2014430','');
FILE_SCHEMA(('CONFIG_CONTROL_DESIGN'));
ENDSEC;
DATA;
#1=CARTESIAN_POINT('',(0.E0,0.E0,-3.E0));
#2=DIRECTION('',(0.E0,0.E0,-1.E0));
#3=DIRECTION('',(0.E0,-1.E0,0.E0));
#4=AXIS2_PLACEMENT_3D('',#1,#2,#3);
#6=CARTESIAN_POINT('',(2.302503923202E1,-4.779836438022E-1,0.E0));
#7=CARTESIAN_POINT('',(2.290871419175E1,-4.237403866888E-1,0.E0));
#8=CARTESIAN_POINT('',(2.267764794052E1,-3.159924241952E-1,-1.365283657811E-2));
#9=CARTESIAN_POINT('',(2.233289570446E1,-1.552318163549E-1,-7.502259671852E-2));
#10=CARTESIAN_POINT('',(2.211010078261E1,-5.134083809976E-2,
-1.421113568843E-1));
#11=CARTESIAN_POINT('',(2.2E1,0.E0,-1.823591428289E-1));
#13=CARTESIAN_POINT('',(0.E0,-2.303E1,-3.E0));
#14=DIRECTION('',(1.E0,0.E0,0.E0));
#15=DIRECTION('',(0.E0,1.E0,0.E0));
#16=AXIS2_PLACEMENT_3D('',#13,#14,#15);
#18=CARTESIAN_POINT('',(0.E0,0.E0,-3.E0));
#19=DIRECTION('',(0.E0,0.E0,1.E0));
#20=DIRECTION('',(0.E0,-1.E0,0.E0));
#21=AXIS2_PLACEMENT_3D('',#18,#19,#20);
#23=CARTESIAN_POINT('',(0.E0,2.303E1,-3.E0));
#24=DIRECTION('',(-1.E0,0.E0,0.E0));
#25=DIRECTION('',(0.E0,-1.E0,0.E0));
#26=AXIS2_PLACEMENT_3D('',#23,#24,#25);
#28=CARTESIAN_POINT('',(2.2E1,0.E0,-1.823591428289E-1));
#29=CARTESIAN_POINT('',(2.210995785468E1,5.127418970933E-2,-1.421636047683E-1));
#30=CARTESIAN_POINT('',(2.233255273122E1,1.550718853070E-1,-7.510610095416E-2));
#31=CARTESIAN_POINT('',(2.267744229146E1,3.158965284658E-1,-1.366931081165E-2));
#32=CARTESIAN_POINT('',(2.290862650512E1,4.236994977402E-1,0.E0));
#33=CARTESIAN_POINT('',(2.302503923202E1,4.779836438022E-1,0.E0));
#35=DIRECTION('',(0.E0,0.E0,-1.E0));
#36=VECTOR('',#35,2.817640857171E0);
#37=CARTESIAN_POINT('',(2.2E1,0.E0,-1.823591428289E-1));
#38=LINE('',#37,#36);
#39=DIRECTION('',(9.063077870367E-1,-4.226182617407E-1,0.E0));
#40=VECTOR('',#39,3.745633596206E0);
#41=CARTESIAN_POINT('',(2.302503923202E1,-4.779836438022E-1,0.E0));
#42=LINE('',#41,#40);
#43=DIRECTION('',(-9.063077870366E-1,-4.226182617407E-1,0.E0));
#44=VECTOR('',#43,3.745633596206E0);
#45=CARTESIAN_POINT('',(2.641973612765E1,2.060956803348E0,0.E0));
#46=LINE('',#45,#44);
#47=CARTESIAN_POINT('',(0.E0,0.E0,0.E0));
#48=DIRECTION('',(0.E0,0.E0,1.E0));
#49=DIRECTION('',(9.997845953984E-1,2.075482604439E-2,0.E0));
#50=AXIS2_PLACEMENT_3D('',#47,#48,#49);
#52=CARTESIAN_POINT('',(0.E0,0.E0,0.E0));
#53=DIRECTION('',(0.E0,0.E0,-1.E0));
#54=DIRECTION('',(0.E0,-1.E0,0.E0));
#55=AXIS2_PLACEMENT_3D('',#52,#53,#54);
#57=CARTESIAN_POINT('',(0.E0,0.E0,0.E0));
#58=DIRECTION('',(0.E0,0.E0,1.E0));
#59=DIRECTION('',(0.E0,-1.E0,0.E0));
#60=AXIS2_PLACEMENT_3D('',#57,#58,#59);
#62=CARTESIAN_POINT('',(0.E0,0.E0,-2.E0));
#63=DIRECTION('',(0.E0,0.E0,-1.E0));
#64=DIRECTION('',(9.969711746284E-1,-7.777195484333E-2,0.E0));
#65=AXIS2_PLACEMENT_3D('',#62,#63,#64);
#67=DIRECTION('',(0.E0,0.E0,-1.E0));
#68=VECTOR('',#67,2.E0);
#69=CARTESIAN_POINT('',(2.641973612765E1,2.060956803348E0,0.E0));
#70=LINE('',#69,#68);
#71=CARTESIAN_POINT('',(0.E0,0.E0,0.E0));
#72=DIRECTION('',(0.E0,0.E0,1.E0));
#73=DIRECTION('',(9.969711746284E-1,7.777195484333E-2,0.E0));
#74=AXIS2_PLACEMENT_3D('',#71,#72,#73);
#76=DIRECTION('',(0.E0,0.E0,-1.E0));
#77=VECTOR('',#76,2.E0);
#78=CARTESIAN_POINT('',(2.641973612765E1,-2.060956803348E0,0.E0));
#79=LINE('',#78,#77);
#80=DIRECTION('',(9.063077870367E-1,-4.226182617407E-1,0.E0));
#81=VECTOR('',#80,3.778428806326E0);
#82=CARTESIAN_POINT('',(2.299531667771E1,-4.641237891078E-1,-2.E0));
#83=LINE('',#82,#81);
#84=DIRECTION('',(-9.063077870366E-1,-4.226182617407E-1,0.E0));
#85=VECTOR('',#84,3.778428806326E0);
#86=CARTESIAN_POINT('',(2.641973612765E1,2.060956803348E0,-2.E0));
#87=LINE('',#86,#85);
#88=CARTESIAN_POINT('',(0.E0,0.E0,-2.E0));
#89=DIRECTION('',(0.E0,0.E0,1.E0));
#90=DIRECTION('',(0.E0,1.E0,0.E0));
#91=AXIS2_PLACEMENT_3D('',#88,#89,#90);
#93=CARTESIAN_POINT('',(2.2E1,0.E0,-3.E0));
#94=CARTESIAN_POINT('',(2.2E1,0.E0,-2.920659558189E0));
#95=CARTESIAN_POINT('',(2.201822267094E1,-8.497371009536E-3,-2.767343279305E0));
#96=CARTESIAN_POINT('',(2.209868662269E1,-4.601832791802E-2,-2.546424198165E0));
#97=CARTESIAN_POINT('',(2.222416099342E1,-1.045279878904E-1,-2.355641328372E0));
#98=CARTESIAN_POINT('',(2.238428303856E1,-1.791941237812E-1,-2.201341568336E0));
#99=CARTESIAN_POINT('',(2.257049576211E1,-2.660265428179E-1,-2.087519744792E0));
#100=CARTESIAN_POINT('',(2.277550280288E1,-3.616228959045E-1,
-2.016819801639E0));
#101=CARTESIAN_POINT('',(2.292043026399E1,-4.292036808967E-1,-2.E0));
#102=CARTESIAN_POINT('',(2.299531667771E1,-4.641237891078E-1,-2.E0));
#104=CARTESIAN_POINT('',(0.E0,0.E0,-3.E0));
#105=DIRECTION('',(0.E0,0.E0,1.E0));
#106=DIRECTION('',(0.E0,-1.E0,0.E0));
#107=AXIS2_PLACEMENT_3D('',#104,#105,#106);
#109=CARTESIAN_POINT('',(0.E0,0.E0,-3.E0));
#110=DIRECTION('',(0.E0,0.E0,1.E0));
#111=DIRECTION('',(1.E0,0.E0,0.E0));
#112=AXIS2_PLACEMENT_3D('',#109,#110,#111);
#114=DIRECTION('',(0.E0,0.E0,-1.E0));
#115=VECTOR('',#114,2.2E1);
#116=CARTESIAN_POINT('',(0.E0,2.2E1,-3.E0));
#117=LINE('',#116,#115);
#118=DIRECTION('',(0.E0,0.E0,-1.E0));
#119=VECTOR('',#118,2.2E1);
#120=CARTESIAN_POINT('',(0.E0,-2.2E1,-3.E0));
#121=LINE('',#120,#119);
#122=CARTESIAN_POINT('',(2.299531667771E1,4.641237891078E-1,-2.E0));
#123=CARTESIAN_POINT('',(2.292013542826E1,4.290661967381E-1,-2.E0));
#124=CARTESIAN_POINT('',(2.277462032809E1,3.612113911495E-1,-2.016937155114E0));
#125=CARTESIAN_POINT('',(2.256844327463E1,2.650694521863E-1,-2.088377485648E0));
#126=CARTESIAN_POINT('',(2.238165855120E1,1.779703052229E-1,-2.203336676361E0));
#127=CARTESIAN_POINT('',(2.222196281957E1,1.035029625931E-1,-2.358254935257E0));
#128=CARTESIAN_POINT('',(2.209726659368E1,4.535615751584E-2,-2.549544938379E0));
#129=CARTESIAN_POINT('',(2.201825376482E1,8.511870324526E-3,-2.767956001185E0));
#130=CARTESIAN_POINT('',(2.2E1,0.E0,-2.920837428076E0));
#131=CARTESIAN_POINT('',(2.2E1,0.E0,-3.E0));
#133=CARTESIAN_POINT('',(0.E0,0.E0,-2.E0));
#134=DIRECTION('',(0.E0,0.E0,1.E0));
#135=DIRECTION('',(9.997963772919E-1,2.017929517860E-2,0.E0));
#136=AXIS2_PLACEMENT_3D('',#133,#134,#135);
#138=CARTESIAN_POINT('',(0.E0,2.3E1,-3.E0));
#139=DIRECTION('',(1.E0,0.E0,0.E0));
#140=DIRECTION('',(0.E0,0.E0,1.E0));
#141=AXIS2_PLACEMENT_3D('',#138,#139,#140);
#143=CARTESIAN_POINT('',(0.E0,0.E0,-3.E0));
#144=DIRECTION('',(0.E0,0.E0,-1.E0));
#145=DIRECTION('',(0.E0,-1.E0,0.E0));
#146=AXIS2_PLACEMENT_3D('',#143,#144,#145);
#148=CARTESIAN_POINT('',(0.E0,0.E0,-2.5E1));
#149=DIRECTION('',(0.E0,0.E0,-1.E0));
#150=DIRECTION('',(0.E0,-1.E0,0.E0));
#151=AXIS2_PLACEMENT_3D('',#148,#149,#150);
#153=DIRECTION('',(0.E0,3.420201433257E-1,-9.396926207859E-1));
#154=VECTOR('',#153,1.064177772476E0);
#155=CARTESIAN_POINT('',(0.E0,-2.2E1,-2.5E1));
#156=LINE('',#155,#154);
#157=CARTESIAN_POINT('',(0.E0,0.E0,-2.5E1));
#158=DIRECTION('',(0.E0,0.E0,1.E0));
#159=DIRECTION('',(0.E0,-1.E0,0.E0));
#160=AXIS2_PLACEMENT_3D('',#157,#158,#159);
#162=DIRECTION('',(0.E0,-3.420201433257E-1,-9.396926207859E-1));
#163=VECTOR('',#162,1.064177772476E0);
#164=CARTESIAN_POINT('',(0.E0,2.2E1,-2.5E1));
#165=LINE('',#164,#163);
#166=CARTESIAN_POINT('',(0.E0,0.E0,-2.6E1));
#167=DIRECTION('',(0.E0,0.E0,-1.E0));
#168=DIRECTION('',(0.E0,-1.E0,0.E0));
#169=AXIS2_PLACEMENT_3D('',#166,#167,#168);
#171=CARTESIAN_POINT('',(0.E0,0.E0,-2.6E1));
#172=DIRECTION('',(0.E0,0.E0,1.E0));
#173=DIRECTION('',(0.E0,-1.E0,0.E0));
#174=AXIS2_PLACEMENT_3D('',#171,#172,#173);
#176=DIRECTION('',(0.E0,7.071067811865E-1,7.071067811866E-1));
#177=VECTOR('',#176,5.656854249492E-1);
#178=CARTESIAN_POINT('',(0.E0,-2.043E1,-2.6E1));
#179=LINE('',#178,#177);
#180=CARTESIAN_POINT('',(0.E0,0.E0,-2.6E1));
#181=DIRECTION('',(0.E0,0.E0,1.E0));
#182=DIRECTION('',(0.E0,-1.E0,0.E0));
#183=AXIS2_PLACEMENT_3D('',#180,#181,#182);
#185=DIRECTION('',(0.E0,-7.071067811865E-1,7.071067811866E-1));
#186=VECTOR('',#185,5.656854249492E-1);
#187=CARTESIAN_POINT('',(0.E0,2.043E1,-2.6E1));
#188=LINE('',#187,#186);
#189=CARTESIAN_POINT('',(0.E0,0.E0,-2.6E1));
#190=DIRECTION('',(0.E0,0.E0,-1.E0));
#191=DIRECTION('',(0.E0,-1.E0,0.E0));
#192=AXIS2_PLACEMENT_3D('',#189,#190,#191);
#194=CARTESIAN_POINT('',(0.E0,0.E0,-2.56E1));
#195=DIRECTION('',(0.E0,0.E0,-1.E0));
#196=DIRECTION('',(0.E0,-1.E0,0.E0));
#197=AXIS2_PLACEMENT_3D('',#194,#195,#196);
#199=DIRECTION('',(0.E0,0.E0,1.E0));
#200=VECTOR('',#199,2.26E1);
#201=CARTESIAN_POINT('',(0.E0,-2.003E1,-2.56E1));
#202=LINE('',#201,#200);
#203=CARTESIAN_POINT('',(0.E0,0.E0,-2.56E1));
#204=DIRECTION('',(0.E0,0.E0,1.E0));
#205=DIRECTION('',(0.E0,-1.E0,0.E0));
#206=AXIS2_PLACEMENT_3D('',#203,#204,#205);
#208=DIRECTION('',(0.E0,0.E0,1.E0));
#209=VECTOR('',#208,2.26E1);
#210=CARTESIAN_POINT('',(0.E0,2.003E1,-2.56E1));
#211=LINE('',#210,#209);
#212=CARTESIAN_POINT('',(0.E0,-2.2E1,-3.E0));
#213=CARTESIAN_POINT('',(0.E0,-2.2E1,-2.5E1));
#214=VERTEX_POINT('',#212);
#215=VERTEX_POINT('',#213);
#216=CARTESIAN_POINT('',(0.E0,-2.163602976573E1,-2.6E1));
#217=VERTEX_POINT('',#216);
#218=CARTESIAN_POINT('',(0.E0,-2.043E1,-2.6E1));
#219=CARTESIAN_POINT('',(0.E0,-2.003E1,-2.56E1));
#220=VERTEX_POINT('',#218);
#221=VERTEX_POINT('',#219);
#222=CARTESIAN_POINT('',(0.E0,-2.003E1,-3.E0));
#223=VERTEX_POINT('',#222);
#224=CARTESIAN_POINT('',(0.E0,2.2E1,-3.E0));
#225=CARTESIAN_POINT('',(0.E0,2.2E1,-2.5E1));
#226=VERTEX_POINT('',#224);
#227=VERTEX_POINT('',#225);
#228=CARTESIAN_POINT('',(0.E0,2.163602976573E1,-2.6E1));
#229=VERTEX_POINT('',#228);
#230=CARTESIAN_POINT('',(0.E0,2.043E1,-2.6E1));
#231=CARTESIAN_POINT('',(0.E0,2.003E1,-2.56E1));
#232=VERTEX_POINT('',#230);
#233=VERTEX_POINT('',#231);
#234=CARTESIAN_POINT('',(0.E0,2.003E1,-3.E0));
#235=VERTEX_POINT('',#234);
#236=CARTESIAN_POINT('',(0.E0,-2.303E1,0.E0));
#237=VERTEX_POINT('',#236);
#238=CARTESIAN_POINT('',(0.E0,2.303E1,0.E0));
#239=VERTEX_POINT('',#238);
#240=CARTESIAN_POINT('',(0.E0,2.3E1,-2.E0));
#241=VERTEX_POINT('',#240);
#242=CARTESIAN_POINT('',(2.302503923202E1,-4.779836438022E-1,0.E0));
#243=CARTESIAN_POINT('',(2.641973612765E1,-2.060956803348E0,0.E0));
#244=VERTEX_POINT('',#242);
#245=VERTEX_POINT('',#243);
#246=CARTESIAN_POINT('',(2.641973612765E1,2.060956803348E0,0.E0));
#247=CARTESIAN_POINT('',(2.302503923202E1,4.779836438022E-1,0.E0));
#248=VERTEX_POINT('',#246);
#249=VERTEX_POINT('',#247);
#250=CARTESIAN_POINT('',(2.299531667771E1,-4.641237891078E-1,-2.E0));
#251=CARTESIAN_POINT('',(2.641973612765E1,-2.060956803348E0,-2.E0));
#252=VERTEX_POINT('',#250);
#253=VERTEX_POINT('',#251);
#254=CARTESIAN_POINT('',(2.641973612765E1,2.060956803348E0,-2.E0));
#255=CARTESIAN_POINT('',(2.299531667771E1,4.641237891078E-1,-2.E0));
#256=VERTEX_POINT('',#254);
#257=VERTEX_POINT('',#255);
#258=VERTEX_POINT('',#11);
#259=VERTEX_POINT('',#93);
#260=CARTESIAN_POINT('',(0.E0,0.E0,-3.E0));
#261=DIRECTION('',(0.E0,0.E0,-1.E0));
#262=DIRECTION('',(0.E0,-1.E0,0.E0));
#263=AXIS2_PLACEMENT_3D('',#260,#261,#262);
#264=TOROIDAL_SURFACE('',#263,2.303E1,3.E0);
#266=ORIENTED_EDGE('',*,*,#265,.T.);
#268=ORIENTED_EDGE('',*,*,#267,.T.);
#270=ORIENTED_EDGE('',*,*,#269,.F.);
#272=ORIENTED_EDGE('',*,*,#271,.F.);
#273=EDGE_LOOP('',(#266,#268,#270,#272));
#274=FACE_OUTER_BOUND('',#273,.F.);
#275=ADVANCED_FACE('',(#274),#264,.T.);
#276=CARTESIAN_POINT('',(0.E0,0.E0,-3.E0));
#277=DIRECTION('',(0.E0,0.E0,-1.E0));
#278=DIRECTION('',(0.E0,-1.E0,0.E0));
#279=AXIS2_PLACEMENT_3D('',#276,#277,#278);
#280=TOROIDAL_SURFACE('',#279,2.303E1,3.E0);
#282=ORIENTED_EDGE('',*,*,#281,.F.);
#284=ORIENTED_EDGE('',*,*,#283,.F.);
#285=ORIENTED_EDGE('',*,*,#265,.F.);
#287=ORIENTED_EDGE('',*,*,#286,.T.);
#288=ORIENTED_EDGE('',*,*,#269,.T.);
#290=ORIENTED_EDGE('',*,*,#289,.F.);
#292=ORIENTED_EDGE('',*,*,#291,.F.);
#293=EDGE_LOOP('',(#282,#284,#285,#287,#288,#290,#292));
#294=FACE_OUTER_BOUND('',#293,.F.);
#295=ADVANCED_FACE('',(#294),#280,.T.);
#296=CARTESIAN_POINT('',(2.2E1,0.E0,0.E0));
#297=DIRECTION('',(-4.226182617407E-1,-9.063077870367E-1,0.E0));
#298=DIRECTION('',(9.063077870367E-1,-4.226182617407E-1,0.E0));
#299=AXIS2_PLACEMENT_3D('',#296,#297,#298);
#300=PLANE('',#299);
#302=ORIENTED_EDGE('',*,*,#301,.F.);
#303=ORIENTED_EDGE('',*,*,#281,.T.);
#305=ORIENTED_EDGE('',*,*,#304,.T.);
#307=ORIENTED_EDGE('',*,*,#306,.T.);
#309=ORIENTED_EDGE('',*,*,#308,.T.);
#311=ORIENTED_EDGE('',*,*,#310,.F.);
#312=EDGE_LOOP('',(#302,#303,#305,#307,#309,#311));
#313=FACE_OUTER_BOUND('',#312,.F.);
#314=ADVANCED_FACE('',(#313),#300,.F.);
#315=CARTESIAN_POINT('',(0.E0,0.E0,0.E0));
#316=DIRECTION('',(0.E0,0.E0,-1.E0));
#317=DIRECTION('',(0.E0,-1.E0,0.E0));
#318=AXIS2_PLACEMENT_3D('',#315,#316,#317);
#319=PLANE('',#318);
#320=ORIENTED_EDGE('',*,*,#301,.T.);
#322=ORIENTED_EDGE('',*,*,#321,.F.);
#324=ORIENTED_EDGE('',*,*,#323,.T.);
#325=ORIENTED_EDGE('',*,*,#289,.T.);
#326=ORIENTED_EDGE('',*,*,#267,.F.);
#327=ORIENTED_EDGE('',*,*,#283,.T.);
#328=EDGE_LOOP('',(#320,#322,#324,#325,#326,#327));
#329=FACE_OUTER_BOUND('',#328,.F.);
#330=ADVANCED_FACE('',(#329),#319,.F.);
#331=CARTESIAN_POINT('',(0.E0,0.E0,1.3E0));
#332=DIRECTION('',(0.E0,0.E0,-1.E0));
#333=DIRECTION('',(0.E0,-1.E0,0.E0));
#334=AXIS2_PLACEMENT_3D('',#331,#332,#333);
#335=CYLINDRICAL_SURFACE('',#334,2.65E1);
#337=ORIENTED_EDGE('',*,*,#336,.T.);
#339=ORIENTED_EDGE('',*,*,#338,.F.);
#340=ORIENTED_EDGE('',*,*,#321,.T.);
#341=ORIENTED_EDGE('',*,*,#310,.T.);
#342=EDGE_LOOP('',(#337,#339,#340,#341));
#343=FACE_OUTER_BOUND('',#342,.F.);
#344=ADVANCED_FACE('',(#343),#335,.T.);
#345=CARTESIAN_POINT('',(0.E0,0.E0,-2.E0));
#346=DIRECTION('',(0.E0,0.E0,-1.E0));
#347=DIRECTION('',(0.E0,-1.E0,0.E0));
#348=AXIS2_PLACEMENT_3D('',#345,#346,#347);
#349=PLANE('',#348);
#350=ORIENTED_EDGE('',*,*,#308,.F.);
#352=ORIENTED_EDGE('',*,*,#351,.F.);
#354=ORIENTED_EDGE('',*,*,#353,.F.);
#356=ORIENTED_EDGE('',*,*,#355,.F.);
#357=ORIENTED_EDGE('',*,*,#336,.F.);
#358=EDGE_LOOP('',(#350,#352,#354,#356,#357));
#359=FACE_OUTER_BOUND('',#358,.F.);
#360=ADVANCED_FACE('',(#359),#349,.T.);
#361=CARTESIAN_POINT('',(0.E0,0.E0,-3.E0));
#362=DIRECTION('',(0.E0,0.E0,-1.E0));
#363=DIRECTION('',(0.E0,-1.E0,0.E0));
#364=AXIS2_PLACEMENT_3D('',#361,#362,#363);
#365=TOROIDAL_SURFACE('',#364,2.3E1,1.E0);
#366=ORIENTED_EDGE('',*,*,#351,.T.);
#367=ORIENTED_EDGE('',*,*,#306,.F.);
#369=ORIENTED_EDGE('',*,*,#368,.F.);
#371=ORIENTED_EDGE('',*,*,#370,.T.);
#373=ORIENTED_EDGE('',*,*,#372,.F.);
#374=EDGE_LOOP('',(#366,#367,#369,#371,#373));
#375=FACE_OUTER_BOUND('',#374,.F.);
#376=ADVANCED_FACE('',(#375),#365,.F.);
#377=CARTESIAN_POINT('',(0.E0,0.E0,1.3E0));
#378=DIRECTION('',(0.E0,0.E0,-1.E0));
#379=DIRECTION('',(0.E0,-1.E0,0.E0));
#380=AXIS2_PLACEMENT_3D('',#377,#378,#379);
#381=CYLINDRICAL_SURFACE('',#380,2.2E1);
#382=ORIENTED_EDGE('',*,*,#368,.T.);
#384=ORIENTED_EDGE('',*,*,#383,.T.);
#386=ORIENTED_EDGE('',*,*,#385,.T.);
#388=ORIENTED_EDGE('',*,*,#387,.F.);
#390=ORIENTED_EDGE('',*,*,#389,.F.);
#391=EDGE_LOOP('',(#382,#384,#386,#388,#390));
#392=FACE_OUTER_BOUND('',#391,.F.);
#393=ADVANCED_FACE('',(#392),#381,.T.);
#394=CARTESIAN_POINT('',(0.E0,0.E0,-3.E0));
#395=DIRECTION('',(0.E0,0.E0,-1.E0));
#396=DIRECTION('',(0.E0,-1.E0,0.E0));
#397=AXIS2_PLACEMENT_3D('',#394,#395,#396);
#398=TOROIDAL_SURFACE('',#397,2.3E1,1.E0);
#400=ORIENTED_EDGE('',*,*,#399,.F.);
#401=ORIENTED_EDGE('',*,*,#353,.T.);
#402=ORIENTED_EDGE('',*,*,#372,.T.);
#403=ORIENTED_EDGE('',*,*,#383,.F.);
#404=EDGE_LOOP('',(#400,#401,#402,#403));
#405=FACE_OUTER_BOUND('',#404,.F.);
#406=ADVANCED_FACE('',(#405),#398,.F.);
#407=CARTESIAN_POINT('',(2.641973612765E1,2.060956803348E0,0.E0));
#408=DIRECTION('',(-4.226182617407E-1,9.063077870367E-1,0.E0));
#409=DIRECTION('',(-9.063077870367E-1,-4.226182617407E-1,0.E0));
#410=AXIS2_PLACEMENT_3D('',#407,#408,#409);
#411=PLANE('',#410);
#412=ORIENTED_EDGE('',*,*,#323,.F.);
#413=ORIENTED_EDGE('',*,*,#338,.T.);
#414=ORIENTED_EDGE('',*,*,#355,.T.);
#415=ORIENTED_EDGE('',*,*,#399,.T.);
#416=ORIENTED_EDGE('',*,*,#304,.F.);
#417=ORIENTED_EDGE('',*,*,#291,.T.);
#418=EDGE_LOOP('',(#412,#413,#414,#415,#416,#417));
#419=FACE_OUTER_BOUND('',#418,.F.);
#420=ADVANCED_FACE('',(#419),#411,.F.);
#421=CARTESIAN_POINT('',(0.E0,0.E0,1.3E0));
#422=DIRECTION('',(0.E0,0.E0,-1.E0));
#423=DIRECTION('',(0.E0,-1.E0,0.E0));
#424=AXIS2_PLACEMENT_3D('',#421,#422,#423);
#425=CYLINDRICAL_SURFACE('',#424,2.2E1);
#426=ORIENTED_EDGE('',*,*,#389,.T.);
#428=ORIENTED_EDGE('',*,*,#427,.T.);
#429=ORIENTED_EDGE('',*,*,#385,.F.);
#430=ORIENTED_EDGE('',*,*,#370,.F.);
#431=EDGE_LOOP('',(#426,#428,#429,#430));
#432=FACE_OUTER_BOUND('',#431,.F.);
#433=ADVANCED_FACE('',(#432),#425,.T.);
#434=CARTESIAN_POINT('',(0.E0,0.E0,-2.55E1));
#435=DIRECTION('',(0.E0,0.E0,1.E0));
#436=DIRECTION('',(0.E0,1.E0,0.E0));
#437=AXIS2_PLACEMENT_3D('',#434,#435,#436);
#438=CONICAL_SURFACE('',#437,2.181801488287E1,2.E1);
#440=ORIENTED_EDGE('',*,*,#439,.T.);
#442=ORIENTED_EDGE('',*,*,#441,.T.);
#444=ORIENTED_EDGE('',*,*,#443,.F.);
#445=ORIENTED_EDGE('',*,*,#427,.F.);
#446=EDGE_LOOP('',(#440,#442,#444,#445));
#447=FACE_OUTER_BOUND('',#446,.F.);
#448=ADVANCED_FACE('',(#447),#438,.T.);
#449=CARTESIAN_POINT('',(0.E0,0.E0,-2.55E1));
#450=DIRECTION('',(0.E0,0.E0,1.E0));
#451=DIRECTION('',(0.E0,1.E0,0.E0));
#452=AXIS2_PLACEMENT_3D('',#449,#450,#451);
#453=CONICAL_SURFACE('',#452,2.181801488287E1,2.E1);
#454=ORIENTED_EDGE('',*,*,#439,.F.);
#455=ORIENTED_EDGE('',*,*,#387,.T.);
#456=ORIENTED_EDGE('',*,*,#443,.T.);
#458=ORIENTED_EDGE('',*,*,#457,.F.);
#459=EDGE_LOOP('',(#454,#455,#456,#458));
#460=FACE_OUTER_BOUND('',#459,.F.);
#461=ADVANCED_FACE('',(#460),#453,.T.);
#462=CARTESIAN_POINT('',(0.E0,0.E0,-2.6E1));
#463=DIRECTION('',(0.E0,0.E0,-1.E0));
#464=DIRECTION('',(0.E0,-1.E0,0.E0));
#465=AXIS2_PLACEMENT_3D('',#462,#463,#464);
#466=PLANE('',#465);
#467=ORIENTED_EDGE('',*,*,#441,.F.);
#468=ORIENTED_EDGE('',*,*,#457,.T.);
#469=EDGE_LOOP('',(#467,#468));
#470=FACE_OUTER_BOUND('',#469,.F.);
#472=ORIENTED_EDGE('',*,*,#471,.F.);
#474=ORIENTED_EDGE('',*,*,#473,.T.);
#475=EDGE_LOOP('',(#472,#474));
#476=FACE_BOUND('',#475,.F.);
#477=ADVANCED_FACE('',(#470,#476),#466,.T.);
#478=CARTESIAN_POINT('',(0.E0,0.E0,-2.58E1));
#479=DIRECTION('',(0.E0,0.E0,-1.E0));
#480=DIRECTION('',(0.E0,-1.E0,0.E0));
#481=AXIS2_PLACEMENT_3D('',#478,#479,#480);
#482=CONICAL_SURFACE('',#481,2.023E1,4.5E1);
#484=ORIENTED_EDGE('',*,*,#483,.F.);
#485=ORIENTED_EDGE('',*,*,#471,.T.);
#487=ORIENTED_EDGE('',*,*,#486,.T.);
#489=ORIENTED_EDGE('',*,*,#488,.F.);
#490=EDGE_LOOP('',(#484,#485,#487,#489));
#491=FACE_OUTER_BOUND('',#490,.F.);
#492=ADVANCED_FACE('',(#491),#482,.F.);
#493=CARTESIAN_POINT('',(0.E0,0.E0,-2.58E1));
#494=DIRECTION('',(0.E0,0.E0,-1.E0));
#495=DIRECTION('',(0.E0,-1.E0,0.E0));
#496=AXIS2_PLACEMENT_3D('',#493,#494,#495);
#497=CONICAL_SURFACE('',#496,2.023E1,4.5E1);
#498=ORIENTED_EDGE('',*,*,#483,.T.);
#500=ORIENTED_EDGE('',*,*,#499,.T.);
#501=ORIENTED_EDGE('',*,*,#486,.F.);
#502=ORIENTED_EDGE('',*,*,#473,.F.);
#503=EDGE_LOOP('',(#498,#500,#501,#502));
#504=FACE_OUTER_BOUND('',#503,.F.);
#505=ADVANCED_FACE('',(#504),#497,.F.);
#506=CARTESIAN_POINT('',(0.E0,0.E0,1.3E0));
#507=DIRECTION('',(0.E0,0.E0,-1.E0));
#508=DIRECTION('',(0.E0,-1.E0,0.E0));
#509=AXIS2_PLACEMENT_3D('',#506,#507,#508);
#510=CYLINDRICAL_SURFACE('',#509,2.003E1);
#512=ORIENTED_EDGE('',*,*,#511,.T.);
#513=ORIENTED_EDGE('',*,*,#271,.T.);
#515=ORIENTED_EDGE('',*,*,#514,.F.);
#516=ORIENTED_EDGE('',*,*,#499,.F.);
#517=EDGE_LOOP('',(#512,#513,#515,#516));
#518=FACE_OUTER_BOUND('',#517,.F.);
#519=ADVANCED_FACE('',(#518),#510,.F.);
#520=CARTESIAN_POINT('',(0.E0,0.E0,1.3E0));
#521=DIRECTION('',(0.E0,0.E0,-1.E0));
#522=DIRECTION('',(0.E0,-1.E0,0.E0));
#523=AXIS2_PLACEMENT_3D('',#520,#521,#522);
#524=CYLINDRICAL_SURFACE('',#523,2.003E1);
#525=ORIENTED_EDGE('',*,*,#511,.F.);
#526=ORIENTED_EDGE('',*,*,#488,.T.);
#527=ORIENTED_EDGE('',*,*,#514,.T.);
#528=ORIENTED_EDGE('',*,*,#286,.F.);
#529=EDGE_LOOP('',(#525,#526,#527,#528));
#530=FACE_OUTER_BOUND('',#529,.F.);
#531=ADVANCED_FACE('',(#530),#524,.F.);
#532=CLOSED_SHELL('',(#275,#295,#314,#330,#344,#360,#376,#393,#406,#420,#433,
#448,#461,#477,#492,#505,#519,#531));
#533=MANIFOLD_SOLID_BREP('',#532);
#535=DIMENSIONAL_EXPONENTS(0.E0,0.E0,0.E0,0.E0,0.E0,0.E0,0.E0);
#537=PLANE_ANGLE_MEASURE_WITH_UNIT(PLANE_ANGLE_MEASURE(1.745329251994E-2),#536);
#538=(CONVERSION_BASED_UNIT('DEGREE',#537)NAMED_UNIT(*)PLANE_ANGLE_UNIT());
#540=UNCERTAINTY_MEASURE_WITH_UNIT(LENGTH_MEASURE(7.934699150180E-3),#534,
'closure',
'Maximum model space distance between geometric entities at asserted connectivities');
#541=(GEOMETRIC_REPRESENTATION_CONTEXT(3)GLOBAL_UNCERTAINTY_ASSIGNED_CONTEXT((
#540))GLOBAL_UNIT_ASSIGNED_CONTEXT((#534,#538,#539))REPRESENTATION_CONTEXT
('ID1','3'));
#543=APPLICATION_CONTEXT(
'CONFIGURATION CONTROLLED 3D DESIGNS OF MECHANICAL PARTS AND ASSEMBLIES');
#544=APPLICATION_PROTOCOL_DEFINITION('international standard',
'config_control_design',1994,#543);
#545=DESIGN_CONTEXT('',#543,'design');
#546=MECHANICAL_CONTEXT('',#543,'mechanical');
#547=PRODUCT('PBG__STEPVORLAGE','PBG__STEPVORLAGE','NOT SPECIFIED',(#546));
#548=PRODUCT_DEFINITION_FORMATION_WITH_SPECIFIED_SOURCE('1','LAST_VERSION',#547,
.MADE.);
#552=PRODUCT_CATEGORY('part','');
#553=PRODUCT_RELATED_PRODUCT_CATEGORY('detail','',(#547));
#554=PRODUCT_CATEGORY_RELATIONSHIP('','',#552,#553);
#555=SECURITY_CLASSIFICATION_LEVEL('unclassified');
#556=SECURITY_CLASSIFICATION('','',#555);
#557=CC_DESIGN_SECURITY_CLASSIFICATION(#556,(#548));
#558=APPROVAL_STATUS('approved');
#559=APPROVAL(#558,'');
#560=CC_DESIGN_APPROVAL(#559,(#556,#548,#549));
#561=CALENDAR_DATE(116,9,8);
#562=COORDINATED_UNIVERSAL_TIME_OFFSET(2,0,.AHEAD.);
#563=LOCAL_TIME(11,16,2.8E1,#562);
#564=DATE_AND_TIME(#561,#563);
#565=APPROVAL_DATE_TIME(#564,#559);
#566=DATE_TIME_ROLE('creation_date');
#567=CC_DESIGN_DATE_AND_TIME_ASSIGNMENT(#564,#566,(#549));
#568=DATE_TIME_ROLE('classification_date');
#569=CC_DESIGN_DATE_AND_TIME_ASSIGNMENT(#564,#568,(#556));
#570=PERSON('UNSPECIFIED','UNSPECIFIED',$,$,$,$);
#571=ORGANIZATION('UNSPECIFIED','UNSPECIFIED','UNSPECIFIED');
#572=PERSON_AND_ORGANIZATION(#570,#571);
#573=APPROVAL_ROLE('approver');
#574=APPROVAL_PERSON_ORGANIZATION(#572,#559,#573);
#575=PERSON_AND_ORGANIZATION_ROLE('creator');
#576=CC_DESIGN_PERSON_AND_ORGANIZATION_ASSIGNMENT(#572,#575,(#548,#549));
#577=PERSON_AND_ORGANIZATION_ROLE('design_supplier');
#578=CC_DESIGN_PERSON_AND_ORGANIZATION_ASSIGNMENT(#572,#577,(#548));
#579=PERSON_AND_ORGANIZATION_ROLE('classification_officer');
#580=CC_DESIGN_PERSON_AND_ORGANIZATION_ASSIGNMENT(#572,#579,(#556));
#581=PERSON_AND_ORGANIZATION_ROLE('design_owner');
#582=CC_DESIGN_PERSON_AND_ORGANIZATION_ASSIGNMENT(#572,#581,(#547));
#5=CIRCLE('',#4,2.003E1);
#12=B_SPLINE_CURVE_WITH_KNOTS('',3,(#6,#7,#8,#9,#10,#11),.UNSPECIFIED.,.F.,.F.,(
4,1,1,4),(0.E0,3.333333333333E-1,6.666666666667E-1,1.E0),.UNSPECIFIED.);
#17=CIRCLE('',#16,3.E0);
#22=CIRCLE('',#21,2.003E1);
#27=CIRCLE('',#26,3.E0);
#34=B_SPLINE_CURVE_WITH_KNOTS('',3,(#28,#29,#30,#31,#32,#33),.UNSPECIFIED.,.F.,
.F.,(4,1,1,4),(0.E0,3.333333333333E-1,6.666666666667E-1,1.E0),.UNSPECIFIED.);
#51=CIRCLE('',#50,2.303E1);
#56=CIRCLE('',#55,2.303E1);
#61=CIRCLE('',#60,2.303E1);
#66=CIRCLE('',#65,2.65E1);
#75=CIRCLE('',#74,2.65E1);
#92=CIRCLE('',#91,2.3E1);
#103=B_SPLINE_CURVE_WITH_KNOTS('',3,(#93,#94,#95,#96,#97,#98,#99,#100,#101,
#102),.UNSPECIFIED.,.F.,.F.,(4,1,1,1,1,1,1,4),(0.E0,1.428571428571E-1,
2.857142857143E-1,4.285714285714E-1,5.714285714286E-1,7.142857142857E-1,
8.571428571429E-1,1.E0),.UNSPECIFIED.);
#108=CIRCLE('',#107,2.2E1);
#113=CIRCLE('',#112,2.2E1);
#132=B_SPLINE_CURVE_WITH_KNOTS('',3,(#122,#123,#124,#125,#126,#127,#128,#129,
#130,#131),.UNSPECIFIED.,.F.,.F.,(4,1,1,1,1,1,1,4),(0.E0,1.428571428571E-1,
2.857142857143E-1,4.285714285714E-1,5.714285714286E-1,7.142857142857E-1,
8.571428571429E-1,1.E0),.UNSPECIFIED.);
#137=CIRCLE('',#136,2.3E1);
#142=CIRCLE('',#141,1.E0);
#147=CIRCLE('',#146,2.2E1);
#152=CIRCLE('',#151,2.2E1);
#161=CIRCLE('',#160,2.2E1);
#170=CIRCLE('',#169,2.163602976573E1);
#175=CIRCLE('',#174,2.163602976573E1);
#184=CIRCLE('',#183,2.043E1);
#193=CIRCLE('',#192,2.043E1);
#198=CIRCLE('',#197,2.003E1);
#207=CIRCLE('',#206,2.003E1);
#265=EDGE_CURVE('',#223,#237,#17,.T.);
#267=EDGE_CURVE('',#237,#239,#56,.T.);
#269=EDGE_CURVE('',#235,#239,#27,.T.);
#271=EDGE_CURVE('',#223,#235,#5,.T.);
#281=EDGE_CURVE('',#244,#258,#12,.T.);
#283=EDGE_CURVE('',#237,#244,#61,.T.);
#286=EDGE_CURVE('',#223,#235,#22,.T.);
#289=EDGE_CURVE('',#249,#239,#51,.T.);
#291=EDGE_CURVE('',#258,#249,#34,.T.);
#301=EDGE_CURVE('',#244,#245,#42,.T.);
#304=EDGE_CURVE('',#258,#259,#38,.T.);
#306=EDGE_CURVE('',#259,#252,#103,.T.);
#308=EDGE_CURVE('',#252,#253,#83,.T.);
#310=EDGE_CURVE('',#245,#253,#79,.T.);
#321=EDGE_CURVE('',#248,#245,#75,.T.);
#323=EDGE_CURVE('',#248,#249,#46,.T.);
#336=EDGE_CURVE('',#253,#256,#66,.T.);
#338=EDGE_CURVE('',#248,#256,#70,.T.);
#351=EDGE_CURVE('',#241,#252,#92,.T.);
#353=EDGE_CURVE('',#257,#241,#137,.T.);
#355=EDGE_CURVE('',#256,#257,#87,.T.);
#368=EDGE_CURVE('',#214,#259,#108,.T.);
#370=EDGE_CURVE('',#214,#226,#147,.T.);
#372=EDGE_CURVE('',#241,#226,#142,.T.);
#383=EDGE_CURVE('',#259,#226,#113,.T.);
#385=EDGE_CURVE('',#226,#227,#117,.T.);
#387=EDGE_CURVE('',#215,#227,#161,.T.);
#389=EDGE_CURVE('',#214,#215,#121,.T.);
#399=EDGE_CURVE('',#257,#259,#132,.T.);
#427=EDGE_CURVE('',#215,#227,#152,.T.);
#439=EDGE_CURVE('',#215,#217,#156,.T.);
#441=EDGE_CURVE('',#217,#229,#170,.T.);
#443=EDGE_CURVE('',#227,#229,#165,.T.);
#457=EDGE_CURVE('',#217,#229,#175,.T.);
#471=EDGE_CURVE('',#220,#232,#184,.T.);
#473=EDGE_CURVE('',#220,#232,#193,.T.);
#483=EDGE_CURVE('',#220,#221,#179,.T.);
#486=EDGE_CURVE('',#232,#233,#188,.T.);
#488=EDGE_CURVE('',#221,#233,#207,.T.);
#499=EDGE_CURVE('',#221,#233,#198,.T.);
#511=EDGE_CURVE('',#221,#223,#202,.T.);
#514=EDGE_CURVE('',#233,#235,#211,.T.);
#534=(LENGTH_UNIT()NAMED_UNIT(*)SI_UNIT(.MILLI.,.METRE.));
#536=(NAMED_UNIT(*)PLANE_ANGLE_UNIT()SI_UNIT($,.RADIAN.));
#539=(NAMED_UNIT(*)SI_UNIT($,.STERADIAN.)SOLID_ANGLE_UNIT());
#542=ADVANCED_BREP_SHAPE_REPRESENTATION('',(#533),#541);
#549=PRODUCT_DEFINITION('design','',#548,#545);
#550=PRODUCT_DEFINITION_SHAPE('','SHAPE FOR PBG__STEPVORLAGE.',#549);
#551=SHAPE_DEFINITION_REPRESENTATION(#550,#542);
ENDSEC;
END-ISO-10303-21;
