ISO-10303-21;
HEADER;
FILE_DESCRIPTION((''),'2;1');
FILE_NAME('PG__F_2016_10_21','2016-07-19T',('deusss58'),(''),
'PRO/ENGINEER BY PARAMETRIC TECHNOLOGY CORPORATION, 2014430',
'PRO/ENGINEER BY PARAMETRIC TECHNOLOGY CORPORATION, 2014430','');
FILE_SCHEMA(('CONFIG_CONTROL_DESIGN'));
ENDSEC;
DATA;
#1=CARTESIAN_POINT('',(0.E0,0.E0,3.65E0));
#2=DIRECTION('',(0.E0,0.E0,-1.E0));
#3=DIRECTION('',(0.E0,-1.E0,0.E0));
#4=AXIS2_PLACEMENT_3D('',#1,#2,#3);
#6=DIRECTION('',(0.E0,-7.071067811865E-1,7.071067811865E-1));
#7=VECTOR('',#6,4.949747468306E-1);
#8=CARTESIAN_POINT('',(0.E0,-5.02E0,3.65E0));
#9=LINE('',#8,#7);
#10=CARTESIAN_POINT('',(0.E0,0.E0,3.65E0));
#11=DIRECTION('',(0.E0,0.E0,1.E0));
#12=DIRECTION('',(0.E0,-1.E0,0.E0));
#13=AXIS2_PLACEMENT_3D('',#10,#11,#12);
#15=DIRECTION('',(0.E0,7.071067811865E-1,7.071067811865E-1));
#16=VECTOR('',#15,4.949747468306E-1);
#17=CARTESIAN_POINT('',(0.E0,5.02E0,3.65E0));
#18=LINE('',#17,#16);
#19=DIRECTION('',(0.E0,0.E0,1.E0));
#20=VECTOR('',#19,7.3E0);
#21=CARTESIAN_POINT('',(0.E0,-5.02E0,-3.65E0));
#22=LINE('',#21,#20);
#23=CARTESIAN_POINT('',(0.E0,0.E0,-3.65E0));
#24=DIRECTION('',(0.E0,0.E0,1.E0));
#25=DIRECTION('',(0.E0,-1.E0,0.E0));
#26=AXIS2_PLACEMENT_3D('',#23,#24,#25);
#28=DIRECTION('',(0.E0,0.E0,1.E0));
#29=VECTOR('',#28,7.3E0);
#30=CARTESIAN_POINT('',(0.E0,5.02E0,-3.65E0));
#31=LINE('',#30,#29);
#32=CARTESIAN_POINT('',(0.E0,0.E0,-3.65E0));
#33=DIRECTION('',(0.E0,0.E0,-1.E0));
#34=DIRECTION('',(0.E0,-1.E0,0.E0));
#35=AXIS2_PLACEMENT_3D('',#32,#33,#34);
#37=CARTESIAN_POINT('',(0.E0,0.E0,-4.E0));
#38=DIRECTION('',(0.E0,0.E0,-1.E0));
#39=DIRECTION('',(0.E0,-1.E0,0.E0));
#40=AXIS2_PLACEMENT_3D('',#37,#38,#39);
#42=DIRECTION('',(0.E0,7.071067811865E-1,7.071067811865E-1));
#43=VECTOR('',#42,4.949747468306E-1);
#44=CARTESIAN_POINT('',(0.E0,-5.37E0,-4.E0));
#45=LINE('',#44,#43);
#46=CARTESIAN_POINT('',(0.E0,0.E0,-4.E0));
#47=DIRECTION('',(0.E0,0.E0,1.E0));
#48=DIRECTION('',(0.E0,-1.E0,0.E0));
#49=AXIS2_PLACEMENT_3D('',#46,#47,#48);
#51=DIRECTION('',(0.E0,-7.071067811865E-1,7.071067811865E-1));
#52=VECTOR('',#51,4.949747468306E-1);
#53=CARTESIAN_POINT('',(0.E0,5.37E0,-4.E0));
#54=LINE('',#53,#52);
#55=CARTESIAN_POINT('',(0.E0,0.E0,-4.E0));
#56=DIRECTION('',(0.E0,0.E0,-1.E0));
#57=DIRECTION('',(0.E0,-1.E0,0.E0));
#58=AXIS2_PLACEMENT_3D('',#55,#56,#57);
#60=CARTESIAN_POINT('',(0.E0,0.E0,-4.E0));
#61=DIRECTION('',(0.E0,0.E0,1.E0));
#62=DIRECTION('',(0.E0,-1.E0,0.E0));
#63=AXIS2_PLACEMENT_3D('',#60,#61,#62);
#65=CARTESIAN_POINT('',(0.E0,0.E0,-3.4E0));
#66=DIRECTION('',(0.E0,0.E0,-1.E0));
#67=DIRECTION('',(0.E0,-1.E0,0.E0));
#68=AXIS2_PLACEMENT_3D('',#65,#66,#67);
#70=DIRECTION('',(0.E0,3.420201433257E-1,-9.396926207859E-1));
#71=VECTOR('',#70,6.385066634855E-1);
#72=CARTESIAN_POINT('',(0.E0,-6.E0,-3.4E0));
#73=LINE('',#72,#71);
#74=CARTESIAN_POINT('',(0.E0,0.E0,-3.4E0));
#75=DIRECTION('',(0.E0,0.E0,1.E0));
#76=DIRECTION('',(0.E0,-1.E0,0.E0));
#77=AXIS2_PLACEMENT_3D('',#74,#75,#76);
#79=DIRECTION('',(0.E0,-3.420201433257E-1,-9.396926207859E-1));
#80=VECTOR('',#79,6.385066634855E-1);
#81=CARTESIAN_POINT('',(0.E0,6.E0,-3.4E0));
#82=LINE('',#81,#80);
#83=DIRECTION('',(0.E0,0.E0,-1.E0));
#84=VECTOR('',#83,6.8E0);
#85=CARTESIAN_POINT('',(0.E0,-6.E0,3.4E0));
#86=LINE('',#85,#84);
#87=CARTESIAN_POINT('',(0.E0,0.E0,3.4E0));
#88=DIRECTION('',(0.E0,0.E0,1.E0));
#89=DIRECTION('',(0.E0,-1.E0,0.E0));
#90=AXIS2_PLACEMENT_3D('',#87,#88,#89);
#92=DIRECTION('',(0.E0,0.E0,-1.E0));
#93=VECTOR('',#92,6.8E0);
#94=CARTESIAN_POINT('',(0.E0,6.E0,3.4E0));
#95=LINE('',#94,#93);
#96=CARTESIAN_POINT('',(0.E0,0.E0,3.4E0));
#97=DIRECTION('',(0.E0,0.E0,-1.E0));
#98=DIRECTION('',(0.E0,-1.E0,0.E0));
#99=AXIS2_PLACEMENT_3D('',#96,#97,#98);
#101=CARTESIAN_POINT('',(0.E0,0.E0,4.E0));
#102=DIRECTION('',(0.E0,0.E0,-1.E0));
#103=DIRECTION('',(0.E0,-1.E0,0.E0));
#104=AXIS2_PLACEMENT_3D('',#101,#102,#103);
#106=DIRECTION('',(0.E0,-3.420201433257E-1,-9.396926207859E-1));
#107=VECTOR('',#106,6.385066634855E-1);
#108=CARTESIAN_POINT('',(0.E0,-5.781617859440E0,4.E0));
#109=LINE('',#108,#107);
#110=CARTESIAN_POINT('',(0.E0,0.E0,4.E0));
#111=DIRECTION('',(0.E0,0.E0,1.E0));
#112=DIRECTION('',(0.E0,-1.E0,0.E0));
#113=AXIS2_PLACEMENT_3D('',#110,#111,#112);
#115=DIRECTION('',(0.E0,3.420201433257E-1,-9.396926207859E-1));
#116=VECTOR('',#115,6.385066634855E-1);
#117=CARTESIAN_POINT('',(0.E0,5.781617859440E0,4.E0));
#118=LINE('',#117,#116);
#119=CARTESIAN_POINT('',(0.E0,0.E0,4.E0));
#120=DIRECTION('',(0.E0,0.E0,-1.E0));
#121=DIRECTION('',(0.E0,-1.E0,0.E0));
#122=AXIS2_PLACEMENT_3D('',#119,#120,#121);
#124=CARTESIAN_POINT('',(0.E0,0.E0,4.E0));
#125=DIRECTION('',(0.E0,0.E0,1.E0));
#126=DIRECTION('',(0.E0,-1.E0,0.E0));
#127=AXIS2_PLACEMENT_3D('',#124,#125,#126);
#129=CARTESIAN_POINT('',(0.E0,-5.02E0,3.65E0));
#130=CARTESIAN_POINT('',(0.E0,-5.37E0,4.E0));
#131=VERTEX_POINT('',#129);
#132=VERTEX_POINT('',#130);
#133=CARTESIAN_POINT('',(0.E0,-5.781617859440E0,4.E0));
#134=CARTESIAN_POINT('',(0.E0,-6.E0,3.4E0));
#135=VERTEX_POINT('',#133);
#136=VERTEX_POINT('',#134);
#137=CARTESIAN_POINT('',(0.E0,-6.E0,-3.4E0));
#138=VERTEX_POINT('',#137);
#139=CARTESIAN_POINT('',(0.E0,-5.781617859440E0,-4.E0));
#140=VERTEX_POINT('',#139);
#141=CARTESIAN_POINT('',(0.E0,-5.37E0,-4.E0));
#142=CARTESIAN_POINT('',(0.E0,-5.02E0,-3.65E0));
#143=VERTEX_POINT('',#141);
#144=VERTEX_POINT('',#142);
#145=CARTESIAN_POINT('',(0.E0,5.02E0,3.65E0));
#146=CARTESIAN_POINT('',(0.E0,5.37E0,4.E0));
#147=VERTEX_POINT('',#145);
#148=VERTEX_POINT('',#146);
#149=CARTESIAN_POINT('',(0.E0,5.781617859440E0,4.E0));
#150=CARTESIAN_POINT('',(0.E0,6.E0,3.4E0));
#151=VERTEX_POINT('',#149);
#152=VERTEX_POINT('',#150);
#153=CARTESIAN_POINT('',(0.E0,6.E0,-3.4E0));
#154=VERTEX_POINT('',#153);
#155=CARTESIAN_POINT('',(0.E0,5.781617859440E0,-4.E0));
#156=VERTEX_POINT('',#155);
#157=CARTESIAN_POINT('',(0.E0,5.37E0,-4.E0));
#158=CARTESIAN_POINT('',(0.E0,5.02E0,-3.65E0));
#159=VERTEX_POINT('',#157);
#160=VERTEX_POINT('',#158);
#161=CARTESIAN_POINT('',(0.E0,0.E0,3.825E0));
#162=DIRECTION('',(0.E0,0.E0,1.E0));
#163=DIRECTION('',(0.E0,1.E0,0.E0));
#164=AXIS2_PLACEMENT_3D('',#161,#162,#163);
#165=CONICAL_SURFACE('',#164,5.195E0,4.5E1);
#167=ORIENTED_EDGE('',*,*,#166,.T.);
#169=ORIENTED_EDGE('',*,*,#168,.T.);
#171=ORIENTED_EDGE('',*,*,#170,.F.);
#173=ORIENTED_EDGE('',*,*,#172,.F.);
#174=EDGE_LOOP('',(#167,#169,#171,#173));
#175=FACE_OUTER_BOUND('',#174,.F.);
#176=ADVANCED_FACE('',(#175),#165,.F.);
#177=CARTESIAN_POINT('',(0.E0,0.E0,3.825E0));
#178=DIRECTION('',(0.E0,0.E0,1.E0));
#179=DIRECTION('',(0.E0,1.E0,0.E0));
#180=AXIS2_PLACEMENT_3D('',#177,#178,#179);
#181=CONICAL_SURFACE('',#180,5.195E0,4.5E1);
#182=ORIENTED_EDGE('',*,*,#166,.F.);
#184=ORIENTED_EDGE('',*,*,#183,.T.);
#185=ORIENTED_EDGE('',*,*,#170,.T.);
#187=ORIENTED_EDGE('',*,*,#186,.F.);
#188=EDGE_LOOP('',(#182,#184,#185,#187));
#189=FACE_OUTER_BOUND('',#188,.F.);
#190=ADVANCED_FACE('',(#189),#181,.F.);
#191=CARTESIAN_POINT('',(0.E0,0.E0,4.4E0));
#192=DIRECTION('',(0.E0,0.E0,-1.E0));
#193=DIRECTION('',(0.E0,-1.E0,0.E0));
#194=AXIS2_PLACEMENT_3D('',#191,#192,#193);
#195=CYLINDRICAL_SURFACE('',#194,5.02E0);
#197=ORIENTED_EDGE('',*,*,#196,.F.);
#199=ORIENTED_EDGE('',*,*,#198,.T.);
#201=ORIENTED_EDGE('',*,*,#200,.T.);
#202=ORIENTED_EDGE('',*,*,#183,.F.);
#203=EDGE_LOOP('',(#197,#199,#201,#202));
#204=FACE_OUTER_BOUND('',#203,.F.);
#205=ADVANCED_FACE('',(#204),#195,.F.);
#206=CARTESIAN_POINT('',(0.E0,0.E0,4.4E0));
#207=DIRECTION('',(0.E0,0.E0,-1.E0));
#208=DIRECTION('',(0.E0,-1.E0,0.E0));
#209=AXIS2_PLACEMENT_3D('',#206,#207,#208);
#210=CYLINDRICAL_SURFACE('',#209,5.02E0);
#211=ORIENTED_EDGE('',*,*,#196,.T.);
#212=ORIENTED_EDGE('',*,*,#172,.T.);
#213=ORIENTED_EDGE('',*,*,#200,.F.);
#215=ORIENTED_EDGE('',*,*,#214,.F.);
#216=EDGE_LOOP('',(#211,#212,#213,#215));
#217=FACE_OUTER_BOUND('',#216,.F.);
#218=ADVANCED_FACE('',(#217),#210,.F.);
#219=CARTESIAN_POINT('',(0.E0,0.E0,-3.825E0));
#220=DIRECTION('',(0.E0,0.E0,-1.E0));
#221=DIRECTION('',(0.E0,-1.E0,0.E0));
#222=AXIS2_PLACEMENT_3D('',#219,#220,#221);
#223=CONICAL_SURFACE('',#222,5.195E0,4.5E1);
#225=ORIENTED_EDGE('',*,*,#224,.T.);
#226=ORIENTED_EDGE('',*,*,#214,.T.);
#228=ORIENTED_EDGE('',*,*,#227,.F.);
#230=ORIENTED_EDGE('',*,*,#229,.F.);
#231=EDGE_LOOP('',(#225,#226,#228,#230));
#232=FACE_OUTER_BOUND('',#231,.F.);
#233=ADVANCED_FACE('',(#232),#223,.F.);
#234=CARTESIAN_POINT('',(0.E0,0.E0,-3.825E0));
#235=DIRECTION('',(0.E0,0.E0,-1.E0));
#236=DIRECTION('',(0.E0,-1.E0,0.E0));
#237=AXIS2_PLACEMENT_3D('',#234,#235,#236);
#238=CONICAL_SURFACE('',#237,5.195E0,4.5E1);
#239=ORIENTED_EDGE('',*,*,#224,.F.);
#241=ORIENTED_EDGE('',*,*,#240,.T.);
#242=ORIENTED_EDGE('',*,*,#227,.T.);
#243=ORIENTED_EDGE('',*,*,#198,.F.);
#244=EDGE_LOOP('',(#239,#241,#242,#243));
#245=FACE_OUTER_BOUND('',#244,.F.);
#246=ADVANCED_FACE('',(#245),#238,.F.);
#247=CARTESIAN_POINT('',(0.E0,0.E0,-4.E0));
#248=DIRECTION('',(0.E0,0.E0,-1.E0));
#249=DIRECTION('',(0.E0,-1.E0,0.E0));
#250=AXIS2_PLACEMENT_3D('',#247,#248,#249);
#251=PLANE('',#250);
#253=ORIENTED_EDGE('',*,*,#252,.F.);
#255=ORIENTED_EDGE('',*,*,#254,.T.);
#256=EDGE_LOOP('',(#253,#255));
#257=FACE_OUTER_BOUND('',#256,.F.);
#258=ORIENTED_EDGE('',*,*,#240,.F.);
#259=ORIENTED_EDGE('',*,*,#229,.T.);
#260=EDGE_LOOP('',(#258,#259));
#261=FACE_BOUND('',#260,.F.);
#262=ADVANCED_FACE('',(#257,#261),#251,.T.);
#263=CARTESIAN_POINT('',(0.E0,0.E0,-3.7E0));
#264=DIRECTION('',(0.E0,0.E0,1.E0));
#265=DIRECTION('',(0.E0,1.E0,0.E0));
#266=AXIS2_PLACEMENT_3D('',#263,#264,#265);
#267=CONICAL_SURFACE('',#266,5.890808929720E0,2.E1);
#269=ORIENTED_EDGE('',*,*,#268,.T.);
#270=ORIENTED_EDGE('',*,*,#252,.T.);
#272=ORIENTED_EDGE('',*,*,#271,.F.);
#274=ORIENTED_EDGE('',*,*,#273,.F.);
#275=EDGE_LOOP('',(#269,#270,#272,#274));
#276=FACE_OUTER_BOUND('',#275,.F.);
#277=ADVANCED_FACE('',(#276),#267,.T.);
#278=CARTESIAN_POINT('',(0.E0,0.E0,-3.7E0));
#279=DIRECTION('',(0.E0,0.E0,1.E0));
#280=DIRECTION('',(0.E0,1.E0,0.E0));
#281=AXIS2_PLACEMENT_3D('',#278,#279,#280);
#282=CONICAL_SURFACE('',#281,5.890808929720E0,2.E1);
#283=ORIENTED_EDGE('',*,*,#268,.F.);
#285=ORIENTED_EDGE('',*,*,#284,.T.);
#286=ORIENTED_EDGE('',*,*,#271,.T.);
#287=ORIENTED_EDGE('',*,*,#254,.F.);
#288=EDGE_LOOP('',(#283,#285,#286,#287));
#289=FACE_OUTER_BOUND('',#288,.F.);
#290=ADVANCED_FACE('',(#289),#282,.T.);
#291=CARTESIAN_POINT('',(0.E0,0.E0,4.4E0));
#292=DIRECTION('',(0.E0,0.E0,-1.E0));
#293=DIRECTION('',(0.E0,-1.E0,0.E0));
#294=AXIS2_PLACEMENT_3D('',#291,#292,#293);
#295=CYLINDRICAL_SURFACE('',#294,6.E0);
#297=ORIENTED_EDGE('',*,*,#296,.F.);
#299=ORIENTED_EDGE('',*,*,#298,.T.);
#301=ORIENTED_EDGE('',*,*,#300,.T.);
#302=ORIENTED_EDGE('',*,*,#284,.F.);
#303=EDGE_LOOP('',(#297,#299,#301,#302));
#304=FACE_OUTER_BOUND('',#303,.F.);
#305=ADVANCED_FACE('',(#304),#295,.T.);
#306=CARTESIAN_POINT('',(0.E0,0.E0,4.4E0));
#307=DIRECTION('',(0.E0,0.E0,-1.E0));
#308=DIRECTION('',(0.E0,-1.E0,0.E0));
#309=AXIS2_PLACEMENT_3D('',#306,#307,#308);
#310=CYLINDRICAL_SURFACE('',#309,6.E0);
#311=ORIENTED_EDGE('',*,*,#296,.T.);
#312=ORIENTED_EDGE('',*,*,#273,.T.);
#313=ORIENTED_EDGE('',*,*,#300,.F.);
#315=ORIENTED_EDGE('',*,*,#314,.F.);
#316=EDGE_LOOP('',(#311,#312,#313,#315));
#317=FACE_OUTER_BOUND('',#316,.F.);
#318=ADVANCED_FACE('',(#317),#310,.T.);
#319=CARTESIAN_POINT('',(0.E0,0.E0,3.7E0));
#320=DIRECTION('',(0.E0,0.E0,-1.E0));
#321=DIRECTION('',(0.E0,-1.E0,0.E0));
#322=AXIS2_PLACEMENT_3D('',#319,#320,#321);
#323=CONICAL_SURFACE('',#322,5.890808929720E0,2.E1);
#325=ORIENTED_EDGE('',*,*,#324,.T.);
#326=ORIENTED_EDGE('',*,*,#314,.T.);
#328=ORIENTED_EDGE('',*,*,#327,.F.);
#330=ORIENTED_EDGE('',*,*,#329,.F.);
#331=EDGE_LOOP('',(#325,#326,#328,#330));
#332=FACE_OUTER_BOUND('',#331,.F.);
#333=ADVANCED_FACE('',(#332),#323,.T.);
#334=CARTESIAN_POINT('',(0.E0,0.E0,3.7E0));
#335=DIRECTION('',(0.E0,0.E0,-1.E0));
#336=DIRECTION('',(0.E0,-1.E0,0.E0));
#337=AXIS2_PLACEMENT_3D('',#334,#335,#336);
#338=CONICAL_SURFACE('',#337,5.890808929720E0,2.E1);
#339=ORIENTED_EDGE('',*,*,#324,.F.);
#341=ORIENTED_EDGE('',*,*,#340,.T.);
#342=ORIENTED_EDGE('',*,*,#327,.T.);
#343=ORIENTED_EDGE('',*,*,#298,.F.);
#344=EDGE_LOOP('',(#339,#341,#342,#343));
#345=FACE_OUTER_BOUND('',#344,.F.);
#346=ADVANCED_FACE('',(#345),#338,.T.);
#347=CARTESIAN_POINT('',(0.E0,0.E0,4.E0));
#348=DIRECTION('',(0.E0,0.E0,-1.E0));
#349=DIRECTION('',(0.E0,-1.E0,0.E0));
#350=AXIS2_PLACEMENT_3D('',#347,#348,#349);
#351=PLANE('',#350);
#352=ORIENTED_EDGE('',*,*,#340,.F.);
#353=ORIENTED_EDGE('',*,*,#329,.T.);
#354=EDGE_LOOP('',(#352,#353));
#355=FACE_OUTER_BOUND('',#354,.F.);
#356=ORIENTED_EDGE('',*,*,#168,.F.);
#357=ORIENTED_EDGE('',*,*,#186,.T.);
#358=EDGE_LOOP('',(#356,#357));
#359=FACE_BOUND('',#358,.F.);
#360=ADVANCED_FACE('',(#355,#359),#351,.F.);
#361=CLOSED_SHELL('',(#176,#190,#205,#218,#233,#246,#262,#277,#290,#305,#318,
#333,#346,#360));
#362=MANIFOLD_SOLID_BREP('',#361);
#364=DIMENSIONAL_EXPONENTS(0.E0,0.E0,0.E0,0.E0,0.E0,0.E0,0.E0);
#366=PLANE_ANGLE_MEASURE_WITH_UNIT(PLANE_ANGLE_MEASURE(1.745329251994E-2),#365);
#367=(CONVERSION_BASED_UNIT('DEGREE',#366)NAMED_UNIT(*)PLANE_ANGLE_UNIT());
#369=UNCERTAINTY_MEASURE_WITH_UNIT(LENGTH_MEASURE(1.876091257277E-3),#363,
'closure',
'Maximum model space distance between geometric entities at asserted connectivities');
#370=(GEOMETRIC_REPRESENTATION_CONTEXT(3)GLOBAL_UNCERTAINTY_ASSIGNED_CONTEXT((
#369))GLOBAL_UNIT_ASSIGNED_CONTEXT((#363,#367,#368))REPRESENTATION_CONTEXT
('ID1','3'));
#372=APPLICATION_CONTEXT(
'CONFIGURATION CONTROLLED 3D DESIGNS OF MECHANICAL PARTS AND ASSEMBLIES');
#373=APPLICATION_PROTOCOL_DEFINITION('international standard',
'config_control_design',1994,#372);
#374=DESIGN_CONTEXT('',#372,'design');
#375=MECHANICAL_CONTEXT('',#372,'mechanical');
#376=PRODUCT('PG__F_2016_10_21','PG__F_2016_10_21','NOT SPECIFIED',(#375));
#377=PRODUCT_DEFINITION_FORMATION_WITH_SPECIFIED_SOURCE('1','LAST_VERSION',#376,
.MADE.);
#381=PRODUCT_CATEGORY('part','');
#382=PRODUCT_RELATED_PRODUCT_CATEGORY('detail','',(#376));
#383=PRODUCT_CATEGORY_RELATIONSHIP('','',#381,#382);
#384=SECURITY_CLASSIFICATION_LEVEL('unclassified');
#385=SECURITY_CLASSIFICATION('','',#384);
#386=CC_DESIGN_SECURITY_CLASSIFICATION(#385,(#377));
#387=APPROVAL_STATUS('approved');
#388=APPROVAL(#387,'');
#389=CC_DESIGN_APPROVAL(#388,(#385,#377,#378));
#390=CALENDAR_DATE(116,19,7);
#391=COORDINATED_UNIVERSAL_TIME_OFFSET(2,0,.AHEAD.);
#392=LOCAL_TIME(8,28,5.1E1,#391);
#393=DATE_AND_TIME(#390,#392);
#394=APPROVAL_DATE_TIME(#393,#388);
#395=DATE_TIME_ROLE('creation_date');
#396=CC_DESIGN_DATE_AND_TIME_ASSIGNMENT(#393,#395,(#378));
#397=DATE_TIME_ROLE('classification_date');
#398=CC_DESIGN_DATE_AND_TIME_ASSIGNMENT(#393,#397,(#385));
#399=PERSON('UNSPECIFIED','UNSPECIFIED',$,$,$,$);
#400=ORGANIZATION('UNSPECIFIED','UNSPECIFIED','UNSPECIFIED');
#401=PERSON_AND_ORGANIZATION(#399,#400);
#402=APPROVAL_ROLE('approver');
#403=APPROVAL_PERSON_ORGANIZATION(#401,#388,#402);
#404=PERSON_AND_ORGANIZATION_ROLE('creator');
#405=CC_DESIGN_PERSON_AND_ORGANIZATION_ASSIGNMENT(#401,#404,(#377,#378));
#406=PERSON_AND_ORGANIZATION_ROLE('design_supplier');
#407=CC_DESIGN_PERSON_AND_ORGANIZATION_ASSIGNMENT(#401,#406,(#377));
#408=PERSON_AND_ORGANIZATION_ROLE('classification_officer');
#409=CC_DESIGN_PERSON_AND_ORGANIZATION_ASSIGNMENT(#401,#408,(#385));
#410=PERSON_AND_ORGANIZATION_ROLE('design_owner');
#411=CC_DESIGN_PERSON_AND_ORGANIZATION_ASSIGNMENT(#401,#410,(#376));
#5=CIRCLE('',#4,5.02E0);
#14=CIRCLE('',#13,5.02E0);
#27=CIRCLE('',#26,5.02E0);
#36=CIRCLE('',#35,5.02E0);
#41=CIRCLE('',#40,5.37E0);
#50=CIRCLE('',#49,5.37E0);
#59=CIRCLE('',#58,5.781617859440E0);
#64=CIRCLE('',#63,5.781617859440E0);
#69=CIRCLE('',#68,6.E0);
#78=CIRCLE('',#77,6.E0);
#91=CIRCLE('',#90,6.E0);
#100=CIRCLE('',#99,6.E0);
#105=CIRCLE('',#104,5.781617859440E0);
#114=CIRCLE('',#113,5.781617859440E0);
#123=CIRCLE('',#122,5.37E0);
#128=CIRCLE('',#127,5.37E0);
#166=EDGE_CURVE('',#131,#132,#9,.T.);
#168=EDGE_CURVE('',#132,#148,#123,.T.);
#170=EDGE_CURVE('',#147,#148,#18,.T.);
#172=EDGE_CURVE('',#131,#147,#5,.T.);
#183=EDGE_CURVE('',#131,#147,#14,.T.);
#186=EDGE_CURVE('',#132,#148,#128,.T.);
#196=EDGE_CURVE('',#144,#131,#22,.T.);
#198=EDGE_CURVE('',#144,#160,#27,.T.);
#200=EDGE_CURVE('',#160,#147,#31,.T.);
#214=EDGE_CURVE('',#144,#160,#36,.T.);
#224=EDGE_CURVE('',#143,#144,#45,.T.);
#227=EDGE_CURVE('',#159,#160,#54,.T.);
#229=EDGE_CURVE('',#143,#159,#41,.T.);
#240=EDGE_CURVE('',#143,#159,#50,.T.);
#252=EDGE_CURVE('',#140,#156,#59,.T.);
#254=EDGE_CURVE('',#140,#156,#64,.T.);
#268=EDGE_CURVE('',#138,#140,#73,.T.);
#271=EDGE_CURVE('',#154,#156,#82,.T.);
#273=EDGE_CURVE('',#138,#154,#69,.T.);
#284=EDGE_CURVE('',#138,#154,#78,.T.);
#296=EDGE_CURVE('',#136,#138,#86,.T.);
#298=EDGE_CURVE('',#136,#152,#91,.T.);
#300=EDGE_CURVE('',#152,#154,#95,.T.);
#314=EDGE_CURVE('',#136,#152,#100,.T.);
#324=EDGE_CURVE('',#135,#136,#109,.T.);
#327=EDGE_CURVE('',#151,#152,#118,.T.);
#329=EDGE_CURVE('',#135,#151,#105,.T.);
#340=EDGE_CURVE('',#135,#151,#114,.T.);
#363=(LENGTH_UNIT()NAMED_UNIT(*)SI_UNIT(.MILLI.,.METRE.));
#365=(NAMED_UNIT(*)PLANE_ANGLE_UNIT()SI_UNIT($,.RADIAN.));
#368=(NAMED_UNIT(*)SI_UNIT($,.STERADIAN.)SOLID_ANGLE_UNIT());
#371=ADVANCED_BREP_SHAPE_REPRESENTATION('',(#362),#370);
#378=PRODUCT_DEFINITION('design','',#377,#374);
#379=PRODUCT_DEFINITION_SHAPE('','SHAPE FOR PG__F_2016_10_21.',#378);
#380=SHAPE_DEFINITION_REPRESENTATION(#379,#371);
ENDSEC;
END-ISO-10303-21;
