ISO-10303-21;
HEADER;
FILE_DESCRIPTION((''),'2;1');
FILE_NAME('PG__A_2016_10_21','2016-08-05T',('deusss58'),(''),
'PRO/ENGINEER BY PARAMETRIC TECHNOLOGY CORPORATION, 2014430',
'PRO/ENGINEER BY PARAMETRIC TECHNOLOGY CORPORATION, 2014430','');
FILE_SCHEMA(('CONFIG_CONTROL_DESIGN'));
ENDSEC;
DATA;
#1=CARTESIAN_POINT('',(0.E0,0.E0,5.65E0));
#2=DIRECTION('',(0.E0,0.E0,-1.E0));
#3=DIRECTION('',(0.E0,-1.E0,0.E0));
#4=AXIS2_PLACEMENT_3D('',#1,#2,#3);
#6=DIRECTION('',(0.E0,-7.071067811865E-1,7.071067811865E-1));
#7=VECTOR('',#6,4.949747468306E-1);
#8=CARTESIAN_POINT('',(0.E0,-5.045E0,5.65E0));
#9=LINE('',#8,#7);
#10=CARTESIAN_POINT('',(0.E0,0.E0,5.65E0));
#11=DIRECTION('',(0.E0,0.E0,1.E0));
#12=DIRECTION('',(0.E0,-1.E0,0.E0));
#13=AXIS2_PLACEMENT_3D('',#10,#11,#12);
#15=DIRECTION('',(0.E0,7.071067811865E-1,7.071067811865E-1));
#16=VECTOR('',#15,4.949747468306E-1);
#17=CARTESIAN_POINT('',(0.E0,5.045E0,5.65E0));
#18=LINE('',#17,#16);
#19=CARTESIAN_POINT('',(0.E0,5.045E0,1.5E0));
#20=CARTESIAN_POINT('',(8.739551376765E-2,5.045E0,1.5E0));
#21=CARTESIAN_POINT('',(2.599856470910E-1,5.040552908363E0,1.485163860644E0));
#22=CARTESIAN_POINT('',(5.187398824887E-1,5.020351079465E0,1.415733640931E0));
#23=CARTESIAN_POINT('',(7.553199679050E-1,4.989886977245E0,1.304727217625E0));
#24=CARTESIAN_POINT('',(9.708271607830E-1,4.952109967025E0,1.153313581823E0));
#25=CARTESIAN_POINT('',(1.153798728804E0,4.912288858686E0,9.702537525081E-1));
#26=CARTESIAN_POINT('',(1.305138538741E0,4.873890329488E0,7.546182365279E-1));
#27=CARTESIAN_POINT('',(1.415697103188E0,4.842586079949E0,5.185031824393E-1));
#28=CARTESIAN_POINT('',(1.484744850447E0,4.821642929222E0,2.620549460461E-1));
#29=CARTESIAN_POINT('',(1.5E0,4.816848035801E0,8.840332478097E-2));
#30=CARTESIAN_POINT('',(1.5E0,4.816848035801E0,0.E0));
#32=DIRECTION('',(0.E0,0.E0,1.E0));
#33=VECTOR('',#32,4.15E0);
#34=CARTESIAN_POINT('',(0.E0,5.045E0,1.5E0));
#35=LINE('',#34,#33);
#36=DIRECTION('',(0.E0,0.E0,1.E0));
#37=VECTOR('',#36,1.13E1);
#38=CARTESIAN_POINT('',(0.E0,-5.045E0,-5.65E0));
#39=LINE('',#38,#37);
#40=CARTESIAN_POINT('',(0.E0,0.E0,-5.65E0));
#41=DIRECTION('',(0.E0,0.E0,1.E0));
#42=DIRECTION('',(0.E0,-1.E0,0.E0));
#43=AXIS2_PLACEMENT_3D('',#40,#41,#42);
#45=DIRECTION('',(0.E0,0.E0,1.E0));
#46=VECTOR('',#45,4.15E0);
#47=CARTESIAN_POINT('',(0.E0,5.045E0,-5.65E0));
#48=LINE('',#47,#46);
#49=CARTESIAN_POINT('',(1.5E0,4.816848035801E0,0.E0));
#50=CARTESIAN_POINT('',(1.5E0,4.816848035801E0,-8.836867186251E-2));
#51=CARTESIAN_POINT('',(1.484751159287E0,4.821640711176E0,-2.619410502718E-1));
#52=CARTESIAN_POINT('',(1.415820050629E0,4.842549436169E0,-5.181340356704E-1));
#53=CARTESIAN_POINT('',(1.305382893369E0,4.873823198932E0,-7.541774381893E-1));
#54=CARTESIAN_POINT('',(1.154236734201E0,4.912184278428E0,-9.697262082205E-1));
#55=CARTESIAN_POINT('',(9.712573119817E-1,4.952028001929E0,-1.152974789959E0));
#56=CARTESIAN_POINT('',(7.555175425562E-1,4.989859955488E0,-1.304627887673E0));
#57=CARTESIAN_POINT('',(5.189140100507E-1,5.020330931217E0,-1.415661835386E0));
#58=CARTESIAN_POINT('',(2.602874616035E-1,5.040537768463E0,-1.485113108477E0));
#59=CARTESIAN_POINT('',(8.751974367947E-2,5.045E0,-1.5E0));
#60=CARTESIAN_POINT('',(0.E0,5.045E0,-1.5E0));
#62=DIRECTION('',(0.E0,-1.E0,0.E0));
#63=VECTOR('',#62,9.926269835101E-1);
#64=CARTESIAN_POINT('',(1.5E0,5.809475019311E0,0.E0));
#65=LINE('',#64,#63);
#66=CARTESIAN_POINT('',(0.E0,6.E0,1.5E0));
#67=CARTESIAN_POINT('',(-8.722138181220E-2,6.E0,1.5E0));
#68=CARTESIAN_POINT('',(-2.594881582613E-1,5.996276116175E0,1.485227926698E0));
#69=CARTESIAN_POINT('',(-5.180524462537E-1,5.979343678831E0,1.415982326726E0));
#70=CARTESIAN_POINT('',(-7.548555337268E-1,5.953788269079E0,1.305024431918E0));
#71=CARTESIAN_POINT('',(-9.708772907903E-1,5.922092715277E0,1.153320654173E0));
#72=CARTESIAN_POINT('',(-1.154198305781E0,5.888759994714E0,9.698141654880E-1));
#73=CARTESIAN_POINT('',(-1.305589158978E0,5.856745823265E0,7.538698738253E-1));
#74=CARTESIAN_POINT('',(-1.416041067378E0,5.830742275358E0,5.175329447333E-1));
#75=CARTESIAN_POINT('',(-1.484807097685E0,5.813433066148E0,2.615139134364E-1));
#76=CARTESIAN_POINT('',(-1.5E0,5.809475019311E0,8.819378499161E-2));
#77=CARTESIAN_POINT('',(-1.5E0,5.809475019311E0,0.E0));
#79=CARTESIAN_POINT('',(0.E0,0.E0,5.4E0));
#80=DIRECTION('',(0.E0,0.E0,-1.E0));
#81=DIRECTION('',(0.E0,-1.E0,0.E0));
#82=AXIS2_PLACEMENT_3D('',#79,#80,#81);
#84=CARTESIAN_POINT('',(-1.5E0,5.809475019311E0,0.E0));
#85=CARTESIAN_POINT('',(-1.5E0,5.809475019311E0,-8.821698290140E-2));
#86=CARTESIAN_POINT('',(-1.484804372930E0,5.813433950999E0,-2.615903829362E-1));
#87=CARTESIAN_POINT('',(-1.415948731734E0,5.830765054677E0,-5.178072703432E-1));
#88=CARTESIAN_POINT('',(-1.305423953589E0,5.856783625180E0,-7.541678745159E-1));
#89=CARTESIAN_POINT('',(-1.153887971159E0,5.888821785756E0,-9.701878155518E-1));
#90=CARTESIAN_POINT('',(-9.706064901493E-1,5.922134939738E0,-1.153525646744E0));
#91=CARTESIAN_POINT('',(-7.548207829375E-1,5.953790402792E0,-1.305031677057E0));
#92=CARTESIAN_POINT('',(-5.180037404614E-1,5.979350792227E0,-1.416013711913E0));
#93=CARTESIAN_POINT('',(-2.592180285680E-1,5.996288527105E0,-1.485277561844E0));
#94=CARTESIAN_POINT('',(-8.710542189735E-2,6.E0,-1.5E0));
#95=CARTESIAN_POINT('',(0.E0,6.E0,-1.5E0));
#97=CARTESIAN_POINT('',(1.5E0,5.809475019311E0,0.E0));
#98=CARTESIAN_POINT('',(1.5E0,5.809475019311E0,8.822207215936E-2));
#99=CARTESIAN_POINT('',(1.484802157848E0,5.813434517716E0,2.616028507170E-1));
#100=CARTESIAN_POINT('',(1.415946308077E0,5.830765656037E0,5.178136026941E-1));
#101=CARTESIAN_POINT('',(1.305418617013E0,5.856784819544E0,7.541773075969E-1));
#102=CARTESIAN_POINT('',(1.153880823264E0,5.888823260976E0,9.701972277699E-1));
#103=CARTESIAN_POINT('',(9.705797739558E-1,5.922139672512E0,1.153550765719E0));
#104=CARTESIAN_POINT('',(7.547661068040E-1,5.953797490236E0,1.305063584504E0));
#105=CARTESIAN_POINT('',(5.179765655853E-1,5.979352113635E0,1.416018708337E0));
#106=CARTESIAN_POINT('',(2.592686767147E-1,5.996285852969E0,1.485266816197E0));
#107=CARTESIAN_POINT('',(8.712922263597E-2,6.E0,1.5E0));
#108=CARTESIAN_POINT('',(0.E0,6.E0,1.5E0));
#110=CARTESIAN_POINT('',(0.E0,6.E0,-1.5E0));
#111=CARTESIAN_POINT('',(8.724839040295E-2,6.E0,-1.5E0));
#112=CARTESIAN_POINT('',(2.595469315194E-1,5.996273191138E0,-1.485216199789E0));
#113=CARTESIAN_POINT('',(5.180385621631E-1,5.979343857198E0,-1.415982555932E0));
#114=CARTESIAN_POINT('',(7.548101921492E-1,5.953794103920E0,-1.305050613964E0));
#115=CARTESIAN_POINT('',(9.708561611120E-1,5.922096509610E0,-1.153340929302E0));
#116=CARTESIAN_POINT('',(1.154195559140E0,5.888760601035E0,-9.698183964955E-1));
#117=CARTESIAN_POINT('',(1.305587231130E0,5.856746245265E0,-7.538732303526E-1));
#118=CARTESIAN_POINT('',(1.416040130313E0,5.830742507531E0,-5.175350079294E-1));
#119=CARTESIAN_POINT('',(1.484805564036E0,5.813433457380E0,-2.615220593675E-1));
#120=CARTESIAN_POINT('',(1.5E0,5.809475019311E0,-8.819720379510E-2));
#121=CARTESIAN_POINT('',(1.5E0,5.809475019311E0,0.E0));
#123=DIRECTION('',(0.E0,0.E0,-1.E0));
#124=VECTOR('',#123,3.9E0);
#125=CARTESIAN_POINT('',(0.E0,6.E0,-1.5E0));
#126=LINE('',#125,#124);
#127=DIRECTION('',(0.E0,0.E0,-1.E0));
#128=VECTOR('',#127,1.08E1);
#129=CARTESIAN_POINT('',(0.E0,-6.E0,5.4E0));
#130=LINE('',#129,#128);
#131=CARTESIAN_POINT('',(0.E0,0.E0,5.4E0));
#132=DIRECTION('',(0.E0,0.E0,1.E0));
#133=DIRECTION('',(0.E0,-1.E0,0.E0));
#134=AXIS2_PLACEMENT_3D('',#131,#132,#133);
#136=DIRECTION('',(0.E0,0.E0,-1.E0));
#137=VECTOR('',#136,3.9E0);
#138=CARTESIAN_POINT('',(0.E0,6.E0,5.4E0));
#139=LINE('',#138,#137);
#140=DIRECTION('',(0.E0,-1.E0,0.E0));
#141=VECTOR('',#140,9.926269835101E-1);
#142=CARTESIAN_POINT('',(-1.5E0,5.809475019311E0,0.E0));
#143=LINE('',#142,#141);
#144=CARTESIAN_POINT('',(-1.5E0,4.816848035801E0,0.E0));
#145=CARTESIAN_POINT('',(-1.5E0,4.816848035801E0,8.836596070574E-2));
#146=CARTESIAN_POINT('',(-1.484752388161E0,4.821640333661E0,2.619343664617E-1));
#147=CARTESIAN_POINT('',(-1.415821094190E0,4.842549120961E0,5.181312772594E-1));
#148=CARTESIAN_POINT('',(-1.305386000997E0,4.873822362026E0,7.541718622696E-1));
#149=CARTESIAN_POINT('',(-1.154241468354E0,4.912183090969E0,9.697197752609E-1));
#150=CARTESIAN_POINT('',(-9.712776151814E-1,4.952023684319E0,1.152955644029E0));
#151=CARTESIAN_POINT('',(-7.555579548770E-1,4.989853767508E0,1.304604571020E0));
#152=CARTESIAN_POINT('',(-5.189311573857E-1,5.020329985620E0,1.415658876689E0));
#153=CARTESIAN_POINT('',(-2.602568527581E-1,5.040539690420E0,1.485119587335E0));
#154=CARTESIAN_POINT('',(-8.750510130351E-2,5.045E0,1.5E0));
#155=CARTESIAN_POINT('',(0.E0,5.045E0,1.5E0));
#157=CARTESIAN_POINT('',(0.E0,5.045E0,-1.5E0));
#158=CARTESIAN_POINT('',(-8.737180086783E-2,5.045E0,-1.5E0));
#159=CARTESIAN_POINT('',(-2.599351665665E-1,5.040556074440E0,
-1.485174554949E0));
#160=CARTESIAN_POINT('',(-5.187660003067E-1,5.020349601647E0,
-1.415728963130E0));
#161=CARTESIAN_POINT('',(-7.553736870629E-1,4.989878668381E0,
-1.304695856124E0));
#162=CARTESIAN_POINT('',(-9.708532822443E-1,4.952104423880E0,
-1.153288983821E0));
#163=CARTESIAN_POINT('',(-1.153805608394E0,4.912287154506E0,
-9.702446803606E-1));
#164=CARTESIAN_POINT('',(-1.305143711298E0,4.873888939217E0,
-7.546091121607E-1));
#165=CARTESIAN_POINT('',(-1.415699487960E0,4.842585367618E0,
-5.184969797854E-1));
#166=CARTESIAN_POINT('',(-1.484747035499E0,4.821642255071E0,
-2.620426701085E-1));
#167=CARTESIAN_POINT('',(-1.5E0,4.816848035801E0,-8.839830812788E-2));
#168=CARTESIAN_POINT('',(-1.5E0,4.816848035801E0,0.E0));
#170=CARTESIAN_POINT('',(0.E0,0.E0,-5.65E0));
#171=DIRECTION('',(0.E0,0.E0,-1.E0));
#172=DIRECTION('',(0.E0,-1.E0,0.E0));
#173=AXIS2_PLACEMENT_3D('',#170,#171,#172);
#175=CARTESIAN_POINT('',(0.E0,0.E0,-6.E0));
#176=DIRECTION('',(0.E0,0.E0,-1.E0));
#177=DIRECTION('',(0.E0,-1.E0,0.E0));
#178=AXIS2_PLACEMENT_3D('',#175,#176,#177);
#180=DIRECTION('',(0.E0,7.071067811865E-1,7.071067811865E-1));
#181=VECTOR('',#180,4.949747468306E-1);
#182=CARTESIAN_POINT('',(0.E0,-5.395E0,-6.E0));
#183=LINE('',#182,#181);
#184=CARTESIAN_POINT('',(0.E0,0.E0,-6.E0));
#185=DIRECTION('',(0.E0,0.E0,1.E0));
#186=DIRECTION('',(0.E0,-1.E0,0.E0));
#187=AXIS2_PLACEMENT_3D('',#184,#185,#186);
#189=DIRECTION('',(0.E0,-7.071067811865E-1,7.071067811865E-1));
#190=VECTOR('',#189,4.949747468306E-1);
#191=CARTESIAN_POINT('',(0.E0,5.395E0,-6.E0));
#192=LINE('',#191,#190);
#193=CARTESIAN_POINT('',(0.E0,0.E0,-6.E0));
#194=DIRECTION('',(0.E0,0.E0,-1.E0));
#195=DIRECTION('',(0.E0,-1.E0,0.E0));
#196=AXIS2_PLACEMENT_3D('',#193,#194,#195);
#198=CARTESIAN_POINT('',(0.E0,0.E0,-6.E0));
#199=DIRECTION('',(0.E0,0.E0,1.E0));
#200=DIRECTION('',(0.E0,-1.E0,0.E0));
#201=AXIS2_PLACEMENT_3D('',#198,#199,#200);
#203=CARTESIAN_POINT('',(0.E0,0.E0,-5.4E0));
#204=DIRECTION('',(0.E0,0.E0,-1.E0));
#205=DIRECTION('',(0.E0,-1.E0,0.E0));
#206=AXIS2_PLACEMENT_3D('',#203,#204,#205);
#208=DIRECTION('',(0.E0,3.420201433257E-1,-9.396926207859E-1));
#209=VECTOR('',#208,6.385066634855E-1);
#210=CARTESIAN_POINT('',(0.E0,-6.E0,-5.4E0));
#211=LINE('',#210,#209);
#212=CARTESIAN_POINT('',(0.E0,0.E0,-5.4E0));
#213=DIRECTION('',(0.E0,0.E0,1.E0));
#214=DIRECTION('',(0.E0,-1.E0,0.E0));
#215=AXIS2_PLACEMENT_3D('',#212,#213,#214);
#217=DIRECTION('',(0.E0,-3.420201433257E-1,-9.396926207859E-1));
#218=VECTOR('',#217,6.385066634855E-1);
#219=CARTESIAN_POINT('',(0.E0,6.E0,-5.4E0));
#220=LINE('',#219,#218);
#221=DIRECTION('',(0.E0,-3.420201433257E-1,-9.396926207859E-1));
#222=VECTOR('',#221,6.385066634855E-1);
#223=CARTESIAN_POINT('',(0.E0,-5.781617859440E0,6.E0));
#224=LINE('',#223,#222);
#225=CARTESIAN_POINT('',(0.E0,0.E0,6.E0));
#226=DIRECTION('',(0.E0,0.E0,1.E0));
#227=DIRECTION('',(0.E0,-1.E0,0.E0));
#228=AXIS2_PLACEMENT_3D('',#225,#226,#227);
#230=DIRECTION('',(0.E0,3.420201433257E-1,-9.396926207859E-1));
#231=VECTOR('',#230,6.385066634855E-1);
#232=CARTESIAN_POINT('',(0.E0,5.781617859440E0,6.E0));
#233=LINE('',#232,#231);
#234=CARTESIAN_POINT('',(0.E0,0.E0,6.E0));
#235=DIRECTION('',(0.E0,0.E0,-1.E0));
#236=DIRECTION('',(0.E0,-1.E0,0.E0));
#237=AXIS2_PLACEMENT_3D('',#234,#235,#236);
#239=CARTESIAN_POINT('',(0.E0,0.E0,6.E0));
#240=DIRECTION('',(0.E0,0.E0,-1.E0));
#241=DIRECTION('',(0.E0,-1.E0,0.E0));
#242=AXIS2_PLACEMENT_3D('',#239,#240,#241);
#244=CARTESIAN_POINT('',(0.E0,0.E0,6.E0));
#245=DIRECTION('',(0.E0,0.E0,1.E0));
#246=DIRECTION('',(0.E0,-1.E0,0.E0));
#247=AXIS2_PLACEMENT_3D('',#244,#245,#246);
#249=CARTESIAN_POINT('',(0.E0,-5.045E0,5.65E0));
#250=CARTESIAN_POINT('',(0.E0,-5.395E0,6.E0));
#251=VERTEX_POINT('',#249);
#252=VERTEX_POINT('',#250);
#253=CARTESIAN_POINT('',(0.E0,-5.781617859440E0,6.E0));
#254=CARTESIAN_POINT('',(0.E0,-6.E0,5.4E0));
#255=VERTEX_POINT('',#253);
#256=VERTEX_POINT('',#254);
#257=CARTESIAN_POINT('',(0.E0,-6.E0,-5.4E0));
#258=VERTEX_POINT('',#257);
#259=CARTESIAN_POINT('',(0.E0,-5.781617859440E0,-6.E0));
#260=VERTEX_POINT('',#259);
#261=CARTESIAN_POINT('',(0.E0,-5.395E0,-6.E0));
#262=CARTESIAN_POINT('',(0.E0,-5.045E0,-5.65E0));
#263=VERTEX_POINT('',#261);
#264=VERTEX_POINT('',#262);
#265=CARTESIAN_POINT('',(0.E0,5.045E0,5.65E0));
#266=CARTESIAN_POINT('',(0.E0,5.395E0,6.E0));
#267=VERTEX_POINT('',#265);
#268=VERTEX_POINT('',#266);
#269=CARTESIAN_POINT('',(0.E0,5.781617859440E0,6.E0));
#270=CARTESIAN_POINT('',(0.E0,6.E0,5.4E0));
#271=VERTEX_POINT('',#269);
#272=VERTEX_POINT('',#270);
#273=CARTESIAN_POINT('',(0.E0,6.E0,-5.4E0));
#274=CARTESIAN_POINT('',(0.E0,5.781617859440E0,-6.E0));
#275=VERTEX_POINT('',#273);
#276=VERTEX_POINT('',#274);
#277=CARTESIAN_POINT('',(0.E0,5.395E0,-6.E0));
#278=CARTESIAN_POINT('',(0.E0,5.045E0,-5.65E0));
#279=VERTEX_POINT('',#277);
#280=VERTEX_POINT('',#278);
#281=VERTEX_POINT('',#66);
#282=VERTEX_POINT('',#77);
#283=VERTEX_POINT('',#95);
#284=VERTEX_POINT('',#144);
#285=VERTEX_POINT('',#155);
#286=VERTEX_POINT('',#157);
#287=VERTEX_POINT('',#97);
#288=VERTEX_POINT('',#30);
#289=CARTESIAN_POINT('',(0.E0,0.E0,5.825E0));
#290=DIRECTION('',(0.E0,0.E0,1.E0));
#291=DIRECTION('',(0.E0,1.E0,0.E0));
#292=AXIS2_PLACEMENT_3D('',#289,#290,#291);
#293=CONICAL_SURFACE('',#292,5.22E0,4.5E1);
#295=ORIENTED_EDGE('',*,*,#294,.T.);
#297=ORIENTED_EDGE('',*,*,#296,.T.);
#299=ORIENTED_EDGE('',*,*,#298,.F.);
#301=ORIENTED_EDGE('',*,*,#300,.F.);
#302=EDGE_LOOP('',(#295,#297,#299,#301));
#303=FACE_OUTER_BOUND('',#302,.F.);
#304=ADVANCED_FACE('',(#303),#293,.F.);
#305=CARTESIAN_POINT('',(0.E0,0.E0,5.825E0));
#306=DIRECTION('',(0.E0,0.E0,1.E0));
#307=DIRECTION('',(0.E0,1.E0,0.E0));
#308=AXIS2_PLACEMENT_3D('',#305,#306,#307);
#309=CONICAL_SURFACE('',#308,5.22E0,4.5E1);
#310=ORIENTED_EDGE('',*,*,#294,.F.);
#312=ORIENTED_EDGE('',*,*,#311,.T.);
#313=ORIENTED_EDGE('',*,*,#298,.T.);
#315=ORIENTED_EDGE('',*,*,#314,.F.);
#316=EDGE_LOOP('',(#310,#312,#313,#315));
#317=FACE_OUTER_BOUND('',#316,.F.);
#318=ADVANCED_FACE('',(#317),#309,.F.);
#319=CARTESIAN_POINT('',(0.E0,0.E0,6.6E0));
#320=DIRECTION('',(0.E0,0.E0,-1.E0));
#321=DIRECTION('',(0.E0,-1.E0,0.E0));
#322=AXIS2_PLACEMENT_3D('',#319,#320,#321);
#323=CYLINDRICAL_SURFACE('',#322,5.045E0);
#325=ORIENTED_EDGE('',*,*,#324,.F.);
#327=ORIENTED_EDGE('',*,*,#326,.T.);
#328=ORIENTED_EDGE('',*,*,#311,.F.);
#330=ORIENTED_EDGE('',*,*,#329,.F.);
#332=ORIENTED_EDGE('',*,*,#331,.T.);
#334=ORIENTED_EDGE('',*,*,#333,.T.);
#336=ORIENTED_EDGE('',*,*,#335,.F.);
#337=EDGE_LOOP('',(#325,#327,#328,#330,#332,#334,#336));
#338=FACE_OUTER_BOUND('',#337,.F.);
#339=ADVANCED_FACE('',(#338),#323,.F.);
#340=CARTESIAN_POINT('',(0.E0,6.E0,0.E0));
#341=DIRECTION('',(0.E0,-1.E0,0.E0));
#342=DIRECTION('',(1.E0,0.E0,0.E0));
#343=AXIS2_PLACEMENT_3D('',#340,#341,#342);
#344=CYLINDRICAL_SURFACE('',#343,1.5E0);
#346=ORIENTED_EDGE('',*,*,#345,.T.);
#348=ORIENTED_EDGE('',*,*,#347,.T.);
#350=ORIENTED_EDGE('',*,*,#349,.T.);
#351=ORIENTED_EDGE('',*,*,#324,.T.);
#353=ORIENTED_EDGE('',*,*,#352,.F.);
#355=ORIENTED_EDGE('',*,*,#354,.T.);
#356=EDGE_LOOP('',(#346,#348,#350,#351,#353,#355));
#357=FACE_OUTER_BOUND('',#356,.F.);
#358=ADVANCED_FACE('',(#357),#344,.F.);
#359=CARTESIAN_POINT('',(0.E0,0.E0,6.6E0));
#360=DIRECTION('',(0.E0,0.E0,-1.E0));
#361=DIRECTION('',(0.E0,-1.E0,0.E0));
#362=AXIS2_PLACEMENT_3D('',#359,#360,#361);
#363=CYLINDRICAL_SURFACE('',#362,6.E0);
#364=ORIENTED_EDGE('',*,*,#345,.F.);
#366=ORIENTED_EDGE('',*,*,#365,.F.);
#368=ORIENTED_EDGE('',*,*,#367,.F.);
#370=ORIENTED_EDGE('',*,*,#369,.T.);
#372=ORIENTED_EDGE('',*,*,#371,.T.);
#374=ORIENTED_EDGE('',*,*,#373,.F.);
#376=ORIENTED_EDGE('',*,*,#375,.F.);
#377=EDGE_LOOP('',(#364,#366,#368,#370,#372,#374,#376));
#378=FACE_OUTER_BOUND('',#377,.F.);
#379=ADVANCED_FACE('',(#378),#363,.T.);
#380=CARTESIAN_POINT('',(0.E0,0.E0,6.6E0));
#381=DIRECTION('',(0.E0,0.E0,-1.E0));
#382=DIRECTION('',(0.E0,-1.E0,0.E0));
#383=AXIS2_PLACEMENT_3D('',#380,#381,#382);
#384=CYLINDRICAL_SURFACE('',#383,6.E0);
#385=ORIENTED_EDGE('',*,*,#354,.F.);
#387=ORIENTED_EDGE('',*,*,#386,.F.);
#388=ORIENTED_EDGE('',*,*,#373,.T.);
#390=ORIENTED_EDGE('',*,*,#389,.F.);
#391=ORIENTED_EDGE('',*,*,#369,.F.);
#393=ORIENTED_EDGE('',*,*,#392,.T.);
#394=ORIENTED_EDGE('',*,*,#365,.T.);
#395=EDGE_LOOP('',(#385,#387,#388,#390,#391,#393,#394));
#396=FACE_OUTER_BOUND('',#395,.F.);
#397=ADVANCED_FACE('',(#396),#384,.T.);
#398=CARTESIAN_POINT('',(0.E0,6.E0,0.E0));
#399=DIRECTION('',(0.E0,-1.E0,0.E0));
#400=DIRECTION('',(1.E0,0.E0,0.E0));
#401=AXIS2_PLACEMENT_3D('',#398,#399,#400);
#402=CYLINDRICAL_SURFACE('',#401,1.5E0);
#403=ORIENTED_EDGE('',*,*,#375,.T.);
#404=ORIENTED_EDGE('',*,*,#386,.T.);
#405=ORIENTED_EDGE('',*,*,#352,.T.);
#406=ORIENTED_EDGE('',*,*,#335,.T.);
#408=ORIENTED_EDGE('',*,*,#407,.T.);
#409=ORIENTED_EDGE('',*,*,#347,.F.);
#410=EDGE_LOOP('',(#403,#404,#405,#406,#408,#409));
#411=FACE_OUTER_BOUND('',#410,.F.);
#412=ADVANCED_FACE('',(#411),#402,.F.);
#413=CARTESIAN_POINT('',(0.E0,0.E0,6.6E0));
#414=DIRECTION('',(0.E0,0.E0,-1.E0));
#415=DIRECTION('',(0.E0,-1.E0,0.E0));
#416=AXIS2_PLACEMENT_3D('',#413,#414,#415);
#417=CYLINDRICAL_SURFACE('',#416,5.045E0);
#418=ORIENTED_EDGE('',*,*,#349,.F.);
#419=ORIENTED_EDGE('',*,*,#407,.F.);
#420=ORIENTED_EDGE('',*,*,#333,.F.);
#422=ORIENTED_EDGE('',*,*,#421,.F.);
#423=ORIENTED_EDGE('',*,*,#329,.T.);
#424=ORIENTED_EDGE('',*,*,#300,.T.);
#425=ORIENTED_EDGE('',*,*,#326,.F.);
#426=EDGE_LOOP('',(#418,#419,#420,#422,#423,#424,#425));
#427=FACE_OUTER_BOUND('',#426,.F.);
#428=ADVANCED_FACE('',(#427),#417,.F.);
#429=CARTESIAN_POINT('',(0.E0,0.E0,-5.825E0));
#430=DIRECTION('',(0.E0,0.E0,-1.E0));
#431=DIRECTION('',(0.E0,-1.E0,0.E0));
#432=AXIS2_PLACEMENT_3D('',#429,#430,#431);
#433=CONICAL_SURFACE('',#432,5.22E0,4.5E1);
#435=ORIENTED_EDGE('',*,*,#434,.T.);
#436=ORIENTED_EDGE('',*,*,#421,.T.);
#438=ORIENTED_EDGE('',*,*,#437,.F.);
#440=ORIENTED_EDGE('',*,*,#439,.F.);
#441=EDGE_LOOP('',(#435,#436,#438,#440));
#442=FACE_OUTER_BOUND('',#441,.F.);
#443=ADVANCED_FACE('',(#442),#433,.F.);
#444=CARTESIAN_POINT('',(0.E0,0.E0,-5.825E0));
#445=DIRECTION('',(0.E0,0.E0,-1.E0));
#446=DIRECTION('',(0.E0,-1.E0,0.E0));
#447=AXIS2_PLACEMENT_3D('',#444,#445,#446);
#448=CONICAL_SURFACE('',#447,5.22E0,4.5E1);
#449=ORIENTED_EDGE('',*,*,#434,.F.);
#451=ORIENTED_EDGE('',*,*,#450,.T.);
#452=ORIENTED_EDGE('',*,*,#437,.T.);
#453=ORIENTED_EDGE('',*,*,#331,.F.);
#454=EDGE_LOOP('',(#449,#451,#452,#453));
#455=FACE_OUTER_BOUND('',#454,.F.);
#456=ADVANCED_FACE('',(#455),#448,.F.);
#457=CARTESIAN_POINT('',(0.E0,0.E0,-6.E0));
#458=DIRECTION('',(0.E0,0.E0,-1.E0));
#459=DIRECTION('',(0.E0,-1.E0,0.E0));
#460=AXIS2_PLACEMENT_3D('',#457,#458,#459);
#461=PLANE('',#460);
#463=ORIENTED_EDGE('',*,*,#462,.F.);
#465=ORIENTED_EDGE('',*,*,#464,.T.);
#466=EDGE_LOOP('',(#463,#465));
#467=FACE_OUTER_BOUND('',#466,.F.);
#468=ORIENTED_EDGE('',*,*,#450,.F.);
#469=ORIENTED_EDGE('',*,*,#439,.T.);
#470=EDGE_LOOP('',(#468,#469));
#471=FACE_BOUND('',#470,.F.);
#472=ADVANCED_FACE('',(#467,#471),#461,.T.);
#473=CARTESIAN_POINT('',(0.E0,0.E0,-5.7E0));
#474=DIRECTION('',(0.E0,0.E0,1.E0));
#475=DIRECTION('',(0.E0,1.E0,0.E0));
#476=AXIS2_PLACEMENT_3D('',#473,#474,#475);
#477=CONICAL_SURFACE('',#476,5.890808929720E0,2.E1);
#479=ORIENTED_EDGE('',*,*,#478,.T.);
#480=ORIENTED_EDGE('',*,*,#462,.T.);
#482=ORIENTED_EDGE('',*,*,#481,.F.);
#483=ORIENTED_EDGE('',*,*,#371,.F.);
#484=EDGE_LOOP('',(#479,#480,#482,#483));
#485=FACE_OUTER_BOUND('',#484,.F.);
#486=ADVANCED_FACE('',(#485),#477,.T.);
#487=CARTESIAN_POINT('',(0.E0,0.E0,-5.7E0));
#488=DIRECTION('',(0.E0,0.E0,1.E0));
#489=DIRECTION('',(0.E0,1.E0,0.E0));
#490=AXIS2_PLACEMENT_3D('',#487,#488,#489);
#491=CONICAL_SURFACE('',#490,5.890808929720E0,2.E1);
#492=ORIENTED_EDGE('',*,*,#478,.F.);
#493=ORIENTED_EDGE('',*,*,#389,.T.);
#494=ORIENTED_EDGE('',*,*,#481,.T.);
#495=ORIENTED_EDGE('',*,*,#464,.F.);
#496=EDGE_LOOP('',(#492,#493,#494,#495));
#497=FACE_OUTER_BOUND('',#496,.F.);
#498=ADVANCED_FACE('',(#497),#491,.T.);
#499=CARTESIAN_POINT('',(0.E0,0.E0,5.7E0));
#500=DIRECTION('',(0.E0,0.E0,-1.E0));
#501=DIRECTION('',(0.E0,-1.E0,0.E0));
#502=AXIS2_PLACEMENT_3D('',#499,#500,#501);
#503=CONICAL_SURFACE('',#502,5.890808929720E0,2.E1);
#505=ORIENTED_EDGE('',*,*,#504,.F.);
#507=ORIENTED_EDGE('',*,*,#506,.T.);
#509=ORIENTED_EDGE('',*,*,#508,.T.);
#510=ORIENTED_EDGE('',*,*,#392,.F.);
#511=EDGE_LOOP('',(#505,#507,#509,#510));
#512=FACE_OUTER_BOUND('',#511,.F.);
#513=ADVANCED_FACE('',(#512),#503,.T.);
#514=CARTESIAN_POINT('',(0.E0,0.E0,5.7E0));
#515=DIRECTION('',(0.E0,0.E0,-1.E0));
#516=DIRECTION('',(0.E0,-1.E0,0.E0));
#517=AXIS2_PLACEMENT_3D('',#514,#515,#516);
#518=CONICAL_SURFACE('',#517,5.890808929720E0,2.E1);
#519=ORIENTED_EDGE('',*,*,#504,.T.);
#520=ORIENTED_EDGE('',*,*,#367,.T.);
#521=ORIENTED_EDGE('',*,*,#508,.F.);
#523=ORIENTED_EDGE('',*,*,#522,.F.);
#524=EDGE_LOOP('',(#519,#520,#521,#523));
#525=FACE_OUTER_BOUND('',#524,.F.);
#526=ADVANCED_FACE('',(#525),#518,.T.);
#527=CARTESIAN_POINT('',(0.E0,0.E0,6.E0));
#528=DIRECTION('',(0.E0,0.E0,-1.E0));
#529=DIRECTION('',(0.E0,-1.E0,0.E0));
#530=AXIS2_PLACEMENT_3D('',#527,#528,#529);
#531=PLANE('',#530);
#532=ORIENTED_EDGE('',*,*,#506,.F.);
#533=ORIENTED_EDGE('',*,*,#522,.T.);
#534=EDGE_LOOP('',(#532,#533));
#535=FACE_OUTER_BOUND('',#534,.F.);
#536=ORIENTED_EDGE('',*,*,#296,.F.);
#537=ORIENTED_EDGE('',*,*,#314,.T.);
#538=EDGE_LOOP('',(#536,#537));
#539=FACE_BOUND('',#538,.F.);
#540=ADVANCED_FACE('',(#535,#539),#531,.F.);
#541=CLOSED_SHELL('',(#304,#318,#339,#358,#379,#397,#412,#428,#443,#456,#472,
#486,#498,#513,#526,#540));
#542=MANIFOLD_SOLID_BREP('',#541);
#544=DIMENSIONAL_EXPONENTS(0.E0,0.E0,0.E0,0.E0,0.E0,0.E0,0.E0);
#546=PLANE_ANGLE_MEASURE_WITH_UNIT(PLANE_ANGLE_MEASURE(1.745329251994E-2),#545);
#547=(CONVERSION_BASED_UNIT('DEGREE',#546)NAMED_UNIT(*)PLANE_ANGLE_UNIT());
#549=UNCERTAINTY_MEASURE_WITH_UNIT(LENGTH_MEASURE(2.078377830644E-3),#543,
'closure',
'Maximum model space distance between geometric entities at asserted connectivities');
#550=(GEOMETRIC_REPRESENTATION_CONTEXT(3)GLOBAL_UNCERTAINTY_ASSIGNED_CONTEXT((
#549))GLOBAL_UNIT_ASSIGNED_CONTEXT((#543,#547,#548))REPRESENTATION_CONTEXT
('ID1','3'));
#552=APPLICATION_CONTEXT(
'CONFIGURATION CONTROLLED 3D DESIGNS OF MECHANICAL PARTS AND ASSEMBLIES');
#553=APPLICATION_PROTOCOL_DEFINITION('international standard',
'config_control_design',1994,#552);
#554=DESIGN_CONTEXT('',#552,'design');
#555=MECHANICAL_CONTEXT('',#552,'mechanical');
#556=PRODUCT('PG__A_2016_10_21','PG__A_2016_10_21','NOT SPECIFIED',(#555));
#557=PRODUCT_DEFINITION_FORMATION_WITH_SPECIFIED_SOURCE('1','LAST_VERSION',#556,
.MADE.);
#561=PRODUCT_CATEGORY('part','');
#562=PRODUCT_RELATED_PRODUCT_CATEGORY('detail','',(#556));
#563=PRODUCT_CATEGORY_RELATIONSHIP('','',#561,#562);
#564=SECURITY_CLASSIFICATION_LEVEL('unclassified');
#565=SECURITY_CLASSIFICATION('','',#564);
#566=CC_DESIGN_SECURITY_CLASSIFICATION(#565,(#557));
#567=APPROVAL_STATUS('approved');
#568=APPROVAL(#567,'');
#569=CC_DESIGN_APPROVAL(#568,(#565,#557,#558));
#570=CALENDAR_DATE(116,5,8);
#571=COORDINATED_UNIVERSAL_TIME_OFFSET(2,0,.AHEAD.);
#572=LOCAL_TIME(11,45,1.6E1,#571);
#573=DATE_AND_TIME(#570,#572);
#574=APPROVAL_DATE_TIME(#573,#568);
#575=DATE_TIME_ROLE('creation_date');
#576=CC_DESIGN_DATE_AND_TIME_ASSIGNMENT(#573,#575,(#558));
#577=DATE_TIME_ROLE('classification_date');
#578=CC_DESIGN_DATE_AND_TIME_ASSIGNMENT(#573,#577,(#565));
#579=PERSON('UNSPECIFIED','UNSPECIFIED',$,$,$,$);
#580=ORGANIZATION('UNSPECIFIED','UNSPECIFIED','UNSPECIFIED');
#581=PERSON_AND_ORGANIZATION(#579,#580);
#582=APPROVAL_ROLE('approver');
#583=APPROVAL_PERSON_ORGANIZATION(#581,#568,#582);
#584=PERSON_AND_ORGANIZATION_ROLE('creator');
#585=CC_DESIGN_PERSON_AND_ORGANIZATION_ASSIGNMENT(#581,#584,(#557,#558));
#586=PERSON_AND_ORGANIZATION_ROLE('design_supplier');
#587=CC_DESIGN_PERSON_AND_ORGANIZATION_ASSIGNMENT(#581,#586,(#557));
#588=PERSON_AND_ORGANIZATION_ROLE('classification_officer');
#589=CC_DESIGN_PERSON_AND_ORGANIZATION_ASSIGNMENT(#581,#588,(#565));
#590=PERSON_AND_ORGANIZATION_ROLE('design_owner');
#591=CC_DESIGN_PERSON_AND_ORGANIZATION_ASSIGNMENT(#581,#590,(#556));
#5=CIRCLE('',#4,5.045E0);
#14=CIRCLE('',#13,5.045E0);
#31=B_SPLINE_CURVE_WITH_KNOTS('',3,(#19,#20,#21,#22,#23,#24,#25,#26,#27,#28,#29,
#30),.UNSPECIFIED.,.F.,.F.,(4,1,1,1,1,1,1,1,1,4),(0.E0,1.111111111111E-1,
2.222222222222E-1,3.333333333333E-1,4.444444444444E-1,5.555555555556E-1,
6.666666666667E-1,7.777777777778E-1,8.888888888889E-1,1.E0),.UNSPECIFIED.);
#44=CIRCLE('',#43,5.045E0);
#61=B_SPLINE_CURVE_WITH_KNOTS('',3,(#49,#50,#51,#52,#53,#54,#55,#56,#57,#58,#59,
#60),.UNSPECIFIED.,.F.,.F.,(4,1,1,1,1,1,1,1,1,4),(0.E0,1.111111111111E-1,
2.222222222222E-1,3.333333333333E-1,4.444444444444E-1,5.555555555556E-1,
6.666666666667E-1,7.777777777778E-1,8.888888888889E-1,1.E0),.UNSPECIFIED.);
#78=B_SPLINE_CURVE_WITH_KNOTS('',3,(#66,#67,#68,#69,#70,#71,#72,#73,#74,#75,#76,
#77),.UNSPECIFIED.,.F.,.F.,(4,1,1,1,1,1,1,1,1,4),(0.E0,1.111111111111E-1,
2.222222222222E-1,3.333333333333E-1,4.444444444444E-1,5.555555555556E-1,
6.666666666667E-1,7.777777777778E-1,8.888888888889E-1,1.E0),.UNSPECIFIED.);
#83=CIRCLE('',#82,6.E0);
#96=B_SPLINE_CURVE_WITH_KNOTS('',3,(#84,#85,#86,#87,#88,#89,#90,#91,#92,#93,#94,
#95),.UNSPECIFIED.,.F.,.F.,(4,1,1,1,1,1,1,1,1,4),(0.E0,1.111111111111E-1,
2.222222222222E-1,3.333333333333E-1,4.444444444444E-1,5.555555555556E-1,
6.666666666667E-1,7.777777777778E-1,8.888888888889E-1,1.E0),.UNSPECIFIED.);
#109=B_SPLINE_CURVE_WITH_KNOTS('',3,(#97,#98,#99,#100,#101,#102,#103,#104,#105,
#106,#107,#108),.UNSPECIFIED.,.F.,.F.,(4,1,1,1,1,1,1,1,1,4),(0.E0,
1.111111111111E-1,2.222222222222E-1,3.333333333333E-1,4.444444444444E-1,
5.555555555556E-1,6.666666666667E-1,7.777777777778E-1,8.888888888889E-1,1.E0),
.UNSPECIFIED.);
#122=B_SPLINE_CURVE_WITH_KNOTS('',3,(#110,#111,#112,#113,#114,#115,#116,#117,
#118,#119,#120,#121),.UNSPECIFIED.,.F.,.F.,(4,1,1,1,1,1,1,1,1,4),(0.E0,
1.111111111111E-1,2.222222222222E-1,3.333333333333E-1,4.444444444444E-1,
5.555555555556E-1,6.666666666667E-1,7.777777777778E-1,8.888888888889E-1,1.E0),
.UNSPECIFIED.);
#135=CIRCLE('',#134,6.E0);
#156=B_SPLINE_CURVE_WITH_KNOTS('',3,(#144,#145,#146,#147,#148,#149,#150,#151,
#152,#153,#154,#155),.UNSPECIFIED.,.F.,.F.,(4,1,1,1,1,1,1,1,1,4),(0.E0,
1.111111111111E-1,2.222222222222E-1,3.333333333333E-1,4.444444444444E-1,
5.555555555556E-1,6.666666666667E-1,7.777777777778E-1,8.888888888889E-1,1.E0),
.UNSPECIFIED.);
#169=B_SPLINE_CURVE_WITH_KNOTS('',3,(#157,#158,#159,#160,#161,#162,#163,#164,
#165,#166,#167,#168),.UNSPECIFIED.,.F.,.F.,(4,1,1,1,1,1,1,1,1,4),(0.E0,
1.111111111111E-1,2.222222222222E-1,3.333333333333E-1,4.444444444444E-1,
5.555555555556E-1,6.666666666667E-1,7.777777777778E-1,8.888888888889E-1,1.E0),
.UNSPECIFIED.);
#174=CIRCLE('',#173,5.045E0);
#179=CIRCLE('',#178,5.395E0);
#188=CIRCLE('',#187,5.395E0);
#197=CIRCLE('',#196,5.781617859440E0);
#202=CIRCLE('',#201,5.781617859440E0);
#207=CIRCLE('',#206,6.E0);
#216=CIRCLE('',#215,6.E0);
#229=CIRCLE('',#228,5.781617859440E0);
#238=CIRCLE('',#237,5.781617859440E0);
#243=CIRCLE('',#242,5.395E0);
#248=CIRCLE('',#247,5.395E0);
#294=EDGE_CURVE('',#251,#252,#9,.T.);
#296=EDGE_CURVE('',#252,#268,#243,.T.);
#298=EDGE_CURVE('',#267,#268,#18,.T.);
#300=EDGE_CURVE('',#251,#267,#5,.T.);
#311=EDGE_CURVE('',#251,#267,#14,.T.);
#314=EDGE_CURVE('',#252,#268,#248,.T.);
#324=EDGE_CURVE('',#285,#288,#31,.T.);
#326=EDGE_CURVE('',#285,#267,#35,.T.);
#329=EDGE_CURVE('',#264,#251,#39,.T.);
#331=EDGE_CURVE('',#264,#280,#44,.T.);
#333=EDGE_CURVE('',#280,#286,#48,.T.);
#335=EDGE_CURVE('',#288,#286,#61,.T.);
#345=EDGE_CURVE('',#281,#282,#78,.T.);
#347=EDGE_CURVE('',#282,#284,#143,.T.);
#349=EDGE_CURVE('',#284,#285,#156,.T.);
#352=EDGE_CURVE('',#287,#288,#65,.T.);
#354=EDGE_CURVE('',#287,#281,#109,.T.);
#365=EDGE_CURVE('',#272,#281,#139,.T.);
#367=EDGE_CURVE('',#256,#272,#83,.T.);
#369=EDGE_CURVE('',#256,#258,#130,.T.);
#371=EDGE_CURVE('',#258,#275,#207,.T.);
#373=EDGE_CURVE('',#283,#275,#126,.T.);
#375=EDGE_CURVE('',#282,#283,#96,.T.);
#386=EDGE_CURVE('',#283,#287,#122,.T.);
#389=EDGE_CURVE('',#258,#275,#216,.T.);
#392=EDGE_CURVE('',#256,#272,#135,.T.);
#407=EDGE_CURVE('',#286,#284,#169,.T.);
#421=EDGE_CURVE('',#264,#280,#174,.T.);
#434=EDGE_CURVE('',#263,#264,#183,.T.);
#437=EDGE_CURVE('',#279,#280,#192,.T.);
#439=EDGE_CURVE('',#263,#279,#179,.T.);
#450=EDGE_CURVE('',#263,#279,#188,.T.);
#462=EDGE_CURVE('',#260,#276,#197,.T.);
#464=EDGE_CURVE('',#260,#276,#202,.T.);
#478=EDGE_CURVE('',#258,#260,#211,.T.);
#481=EDGE_CURVE('',#275,#276,#220,.T.);
#504=EDGE_CURVE('',#255,#256,#224,.T.);
#506=EDGE_CURVE('',#255,#271,#229,.T.);
#508=EDGE_CURVE('',#271,#272,#233,.T.);
#522=EDGE_CURVE('',#255,#271,#238,.T.);
#543=(LENGTH_UNIT()NAMED_UNIT(*)SI_UNIT(.MILLI.,.METRE.));
#545=(NAMED_UNIT(*)PLANE_ANGLE_UNIT()SI_UNIT($,.RADIAN.));
#548=(NAMED_UNIT(*)SI_UNIT($,.STERADIAN.)SOLID_ANGLE_UNIT());
#551=ADVANCED_BREP_SHAPE_REPRESENTATION('',(#542),#550);
#558=PRODUCT_DEFINITION('design','',#557,#554);
#559=PRODUCT_DEFINITION_SHAPE('','SHAPE FOR PG__A_2016_10_21.',#558);
#560=SHAPE_DEFINITION_REPRESENTATION(#559,#551);
ENDSEC;
END-ISO-10303-21;
