ISO-10303-21;
HEADER;
FILE_DESCRIPTION((''),'2;1');
FILE_NAME('PG__A_2016_10_21','2016-08-05T',('deusss58'),(''),
'PRO/ENGINEER BY PARAMETRIC TECHNOLOGY CORPORATION, 2014430',
'PRO/ENGINEER BY PARAMETRIC TECHNOLOGY CORPORATION, 2014430','');
FILE_SCHEMA(('CONFIG_CONTROL_DESIGN'));
ENDSEC;
DATA;
#1=CARTESIAN_POINT('',(0.E0,0.E0,7.15E0));
#2=DIRECTION('',(0.E0,0.E0,-1.E0));
#3=DIRECTION('',(0.E0,-1.E0,0.E0));
#4=AXIS2_PLACEMENT_3D('',#1,#2,#3);
#6=DIRECTION('',(0.E0,-7.071067811865E-1,7.071067811865E-1));
#7=VECTOR('',#6,4.949747468306E-1);
#8=CARTESIAN_POINT('',(0.E0,-5.045E0,7.15E0));
#9=LINE('',#8,#7);
#10=CARTESIAN_POINT('',(0.E0,0.E0,7.15E0));
#11=DIRECTION('',(0.E0,0.E0,1.E0));
#12=DIRECTION('',(0.E0,-1.E0,0.E0));
#13=AXIS2_PLACEMENT_3D('',#10,#11,#12);
#15=DIRECTION('',(0.E0,7.071067811865E-1,7.071067811865E-1));
#16=VECTOR('',#15,4.949747468306E-1);
#17=CARTESIAN_POINT('',(0.E0,5.045E0,7.15E0));
#18=LINE('',#17,#16);
#19=CARTESIAN_POINT('',(0.E0,5.045E0,1.5E0));
#20=CARTESIAN_POINT('',(8.683949492541E-2,5.045E0,1.5E0));
#21=CARTESIAN_POINT('',(2.587260258202E-1,5.040623987198E0,1.485403672303E0));
#22=CARTESIAN_POINT('',(5.186869061977E-1,5.020375082525E0,1.415824561209E0));
#23=CARTESIAN_POINT('',(7.556078511456E-1,4.989841335505E0,1.304556358552E0));
#24=CARTESIAN_POINT('',(9.709188668570E-1,4.952089130423E0,1.153216566583E0));
#25=CARTESIAN_POINT('',(1.153752292354E0,4.912299250906E0,9.703011217937E-1));
#26=CARTESIAN_POINT('',(1.305117771899E0,4.873896438240E0,7.546624375791E-1));
#27=CARTESIAN_POINT('',(1.415714235400E0,4.842581179578E0,5.184732203105E-1));
#28=CARTESIAN_POINT('',(1.484764247047E0,4.821636891419E0,2.619469162316E-1));
#29=CARTESIAN_POINT('',(1.5E0,4.816848035801E0,8.835502449349E-2));
#30=CARTESIAN_POINT('',(1.5E0,4.816848035801E0,0.E0));
#32=DIRECTION('',(0.E0,0.E0,1.E0));
#33=VECTOR('',#32,5.65E0);
#34=CARTESIAN_POINT('',(0.E0,5.045E0,1.5E0));
#35=LINE('',#34,#33);
#36=DIRECTION('',(0.E0,0.E0,1.E0));
#37=VECTOR('',#36,1.43E1);
#38=CARTESIAN_POINT('',(0.E0,-5.045E0,-7.15E0));
#39=LINE('',#38,#37);
#40=CARTESIAN_POINT('',(0.E0,0.E0,-7.15E0));
#41=DIRECTION('',(0.E0,0.E0,1.E0));
#42=DIRECTION('',(0.E0,-1.E0,0.E0));
#43=AXIS2_PLACEMENT_3D('',#40,#41,#42);
#45=DIRECTION('',(0.E0,0.E0,1.E0));
#46=VECTOR('',#45,5.65E0);
#47=CARTESIAN_POINT('',(0.E0,5.045E0,-7.15E0));
#48=LINE('',#47,#46);
#49=CARTESIAN_POINT('',(1.5E0,4.816848035801E0,0.E0));
#50=CARTESIAN_POINT('',(1.5E0,4.816848035801E0,-8.832994784391E-2));
#51=CARTESIAN_POINT('',(1.484766156181E0,4.821636022022E0,-2.618554627482E-1));
#52=CARTESIAN_POINT('',(1.415835664370E0,4.842544995189E0,-5.181065793974E-1));
#53=CARTESIAN_POINT('',(1.305359033294E0,4.873830065397E0,-7.542261701935E-1));
#54=CARTESIAN_POINT('',(1.154196437933E0,4.912193251463E0,-9.697665074376E-1));
#55=CARTESIAN_POINT('',(9.713332365852E-1,4.952010764484E0,-1.152894866299E0));
#56=CARTESIAN_POINT('',(7.557333238682E-1,4.989826466430E0,-1.304504021639E0));
#57=CARTESIAN_POINT('',(5.187328681381E-1,5.020367859879E0,-1.415798006253E0));
#58=CARTESIAN_POINT('',(2.589795105826E-1,5.040610005316E0,-1.485356541391E0));
#59=CARTESIAN_POINT('',(8.694521738221E-2,5.045E0,-1.5E0));
#60=CARTESIAN_POINT('',(0.E0,5.045E0,-1.5E0));
#62=DIRECTION('',(0.E0,-1.E0,0.E0));
#63=VECTOR('',#62,9.926269835101E-1);
#64=CARTESIAN_POINT('',(1.5E0,5.809475019311E0,0.E0));
#65=LINE('',#64,#63);
#66=CARTESIAN_POINT('',(0.E0,6.E0,1.5E0));
#67=CARTESIAN_POINT('',(-8.663100182336E-2,6.E0,1.5E0));
#68=CARTESIAN_POINT('',(-2.581419552908E-1,5.996338320350E0,1.485477225929E0));
#69=CARTESIAN_POINT('',(-5.178536671738E-1,5.979376425707E0,1.416125957889E0));
#70=CARTESIAN_POINT('',(-7.550568029840E-1,5.953761974522E0,1.304908652390E0));
#71=CARTESIAN_POINT('',(-9.709333314346E-1,5.922081536227E0,1.153256754980E0));
#72=CARTESIAN_POINT('',(-1.154137028079E0,5.888771635941E0,9.698792900688E-1));
#73=CARTESIAN_POINT('',(-1.305552005807E0,5.856754570391E0,7.539427585831E-1));
#74=CARTESIAN_POINT('',(-1.416051891312E0,5.830739781580E0,5.175207681352E-1));
#75=CARTESIAN_POINT('',(-1.484821857348E0,5.813429244020E0,2.614324606809E-1));
#76=CARTESIAN_POINT('',(-1.5E0,5.809475019311E0,8.815604964763E-2));
#77=CARTESIAN_POINT('',(-1.5E0,5.809475019311E0,0.E0));
#79=CARTESIAN_POINT('',(0.E0,0.E0,6.9E0));
#80=DIRECTION('',(0.E0,0.E0,-1.E0));
#81=DIRECTION('',(0.E0,-1.E0,0.E0));
#82=AXIS2_PLACEMENT_3D('',#79,#80,#81);
#84=CARTESIAN_POINT('',(-1.5E0,5.809475019311E0,0.E0));
#85=CARTESIAN_POINT('',(-1.5E0,5.809475019311E0,-8.816901942202E-2));
#86=CARTESIAN_POINT('',(-1.484823655657E0,5.813428975578E0,-2.614837619223E-1));
#87=CARTESIAN_POINT('',(-1.415964260567E0,5.830761381408E0,-5.177823842348E-1));
#88=CARTESIAN_POINT('',(-1.305398666337E0,5.856789737822E0,-7.542203705746E-1));
#89=CARTESIAN_POINT('',(-1.153834170805E0,5.888831915731E0,-9.702438586470E-1));
#90=CARTESIAN_POINT('',(-9.706917322560E-1,5.922118586126E0,-1.153433806072E0));
#91=CARTESIAN_POINT('',(-7.551046193222E-1,5.953752615946E0,-1.304862972355E0));
#92=CARTESIAN_POINT('',(-5.179503253873E-1,5.979370961883E0,-1.416104809851E0));
#93=CARTESIAN_POINT('',(-2.579540932735E-1,5.996348326874E0,-1.485517531175E0));
#94=CARTESIAN_POINT('',(-8.654792609661E-2,6.E0,-1.5E0));
#95=CARTESIAN_POINT('',(0.E0,6.E0,-1.5E0));
#97=CARTESIAN_POINT('',(1.5E0,5.809475019311E0,0.E0));
#98=CARTESIAN_POINT('',(1.5E0,5.809475019311E0,8.817477467055E-2));
#99=CARTESIAN_POINT('',(1.484821163901E0,5.813429613267E0,2.614978614123E-1));
#100=CARTESIAN_POINT('',(1.415961438147E0,5.830762081654E0,5.177897652573E-1));
#101=CARTESIAN_POINT('',(1.305392624541E0,5.856791088270E0,7.542310374235E-1));
#102=CARTESIAN_POINT('',(1.153825842803E0,5.888833642945E0,9.702548926956E-1));
#103=CARTESIAN_POINT('',(9.706607422223E-1,5.922124046290E0,1.153462747105E0));
#104=CARTESIAN_POINT('',(7.550429789263E-1,5.953760658667E0,1.304899212445E0));
#105=CARTESIAN_POINT('',(5.179149480163E-1,5.979372835431E0,1.416112055215E0));
#106=CARTESIAN_POINT('',(2.580135212052E-1,5.996345150750E0,1.485504747344E0));
#107=CARTESIAN_POINT('',(8.657576239642E-2,6.E0,1.5E0));
#108=CARTESIAN_POINT('',(0.E0,6.E0,1.5E0));
#110=CARTESIAN_POINT('',(0.E0,6.E0,-1.5E0));
#111=CARTESIAN_POINT('',(8.666283667429E-2,6.E0,-1.5E0));
#112=CARTESIAN_POINT('',(2.582115280326E-1,5.996334835938E0,-1.485463237019E0));
#113=CARTESIAN_POINT('',(5.178350297505E-1,5.979376861586E0,-1.416127210341E0));
#114=CARTESIAN_POINT('',(7.550069987315E-1,5.953768426555E0,-1.304937617220E0));
#115=CARTESIAN_POINT('',(9.709092286162E-1,5.922085837167E0,-1.153279705754E0));
#116=CARTESIAN_POINT('',(1.154134148225E0,5.888772288236E0,-9.698839145513E-1));
#117=CARTESIAN_POINT('',(1.305550167680E0,5.856754968117E0,-7.539459316986E-1));
#118=CARTESIAN_POINT('',(1.416050915177E0,5.830740023435E0,-5.175228465943E-1));
#119=CARTESIAN_POINT('',(1.484820198137E0,5.813429667218E0,-2.614412558300E-1));
#120=CARTESIAN_POINT('',(1.5E0,5.809475019311E0,-8.815975591796E-2));
#121=CARTESIAN_POINT('',(1.5E0,5.809475019311E0,0.E0));
#123=DIRECTION('',(0.E0,0.E0,-1.E0));
#124=VECTOR('',#123,5.4E0);
#125=CARTESIAN_POINT('',(0.E0,6.E0,-1.5E0));
#126=LINE('',#125,#124);
#127=DIRECTION('',(0.E0,0.E0,-1.E0));
#128=VECTOR('',#127,1.38E1);
#129=CARTESIAN_POINT('',(0.E0,-6.E0,6.9E0));
#130=LINE('',#129,#128);
#131=CARTESIAN_POINT('',(0.E0,0.E0,6.9E0));
#132=DIRECTION('',(0.E0,0.E0,1.E0));
#133=DIRECTION('',(0.E0,-1.E0,0.E0));
#134=AXIS2_PLACEMENT_3D('',#131,#132,#133);
#136=DIRECTION('',(0.E0,0.E0,-1.E0));
#137=VECTOR('',#136,5.4E0);
#138=CARTESIAN_POINT('',(0.E0,6.E0,6.9E0));
#139=LINE('',#138,#137);
#140=DIRECTION('',(0.E0,-1.E0,0.E0));
#141=VECTOR('',#140,9.926269835101E-1);
#142=CARTESIAN_POINT('',(-1.5E0,5.809475019311E0,0.E0));
#143=LINE('',#142,#141);
#144=CARTESIAN_POINT('',(-1.5E0,4.816848035801E0,0.E0));
#145=CARTESIAN_POINT('',(-1.5E0,4.816848035801E0,8.832631371898E-2));
#146=CARTESIAN_POINT('',(-1.484767781319E0,4.821635522119E0,2.618468522286E-1));
#147=CARTESIAN_POINT('',(-1.415836629836E0,4.842544707561E0,5.181045391643E-1));
#148=CARTESIAN_POINT('',(-1.305360749145E0,4.873829620932E0,7.542232268475E-1));
#149=CARTESIAN_POINT('',(-1.154199121660E0,4.912192516662E0,9.697621384065E-1));
#150=CARTESIAN_POINT('',(-9.713567971360E-1,4.952005725858E0,1.152872382780E0));
#151=CARTESIAN_POINT('',(-7.557823596096E-1,4.989818883989E0,1.304475477977E0));
#152=CARTESIAN_POINT('',(-5.187507109489E-1,5.020367410863E0,1.415796983131E0));
#153=CARTESIAN_POINT('',(-2.589102981002E-1,5.040614130941E0,1.485370465451E0));
#154=CARTESIAN_POINT('',(-8.691354560265E-2,5.045E0,1.5E0));
#155=CARTESIAN_POINT('',(0.E0,5.045E0,1.5E0));
#157=CARTESIAN_POINT('',(0.E0,5.045E0,-1.5E0));
#158=CARTESIAN_POINT('',(-8.681179793570E-2,5.045E0,-1.5E0));
#159=CARTESIAN_POINT('',(-2.586668866900E-1,5.040627744461E0,
-1.485416384382E0));
#160=CARTESIAN_POINT('',(-5.187211793724E-1,5.020372948964E0,
-1.415817637967E0));
#161=CARTESIAN_POINT('',(-7.556684666804E-1,4.989831896843E0,
-1.304520700725E0));
#162=CARTESIAN_POINT('',(-9.709492215423E-1,4.952082725112E0,
-1.153188181354E0));
#163=CARTESIAN_POINT('',(-1.153760338269E0,4.912297247814E0,
-9.702904459250E-1));
#164=CARTESIAN_POINT('',(-1.305123642091E0,4.873894862503E0,
-7.546520950856E-1));
#165=CARTESIAN_POINT('',(-1.415717020393E0,4.842580347767E0,
-5.184659666200E-1));
#166=CARTESIAN_POINT('',(-1.484766706012E0,4.821636132511E0,
-2.619330235400E-1));
#167=CARTESIAN_POINT('',(-1.5E0,4.816848035801E0,-8.834934778086E-2));
#168=CARTESIAN_POINT('',(-1.5E0,4.816848035801E0,0.E0));
#170=CARTESIAN_POINT('',(0.E0,0.E0,-7.15E0));
#171=DIRECTION('',(0.E0,0.E0,-1.E0));
#172=DIRECTION('',(0.E0,-1.E0,0.E0));
#173=AXIS2_PLACEMENT_3D('',#170,#171,#172);
#175=CARTESIAN_POINT('',(0.E0,0.E0,-7.5E0));
#176=DIRECTION('',(0.E0,0.E0,-1.E0));
#177=DIRECTION('',(0.E0,-1.E0,0.E0));
#178=AXIS2_PLACEMENT_3D('',#175,#176,#177);
#180=DIRECTION('',(0.E0,7.071067811865E-1,7.071067811865E-1));
#181=VECTOR('',#180,4.949747468306E-1);
#182=CARTESIAN_POINT('',(0.E0,-5.395E0,-7.5E0));
#183=LINE('',#182,#181);
#184=CARTESIAN_POINT('',(0.E0,0.E0,-7.5E0));
#185=DIRECTION('',(0.E0,0.E0,1.E0));
#186=DIRECTION('',(0.E0,-1.E0,0.E0));
#187=AXIS2_PLACEMENT_3D('',#184,#185,#186);
#189=DIRECTION('',(0.E0,-7.071067811865E-1,7.071067811865E-1));
#190=VECTOR('',#189,4.949747468306E-1);
#191=CARTESIAN_POINT('',(0.E0,5.395E0,-7.5E0));
#192=LINE('',#191,#190);
#193=CARTESIAN_POINT('',(0.E0,0.E0,-7.5E0));
#194=DIRECTION('',(0.E0,0.E0,-1.E0));
#195=DIRECTION('',(0.E0,-1.E0,0.E0));
#196=AXIS2_PLACEMENT_3D('',#193,#194,#195);
#198=CARTESIAN_POINT('',(0.E0,0.E0,-7.5E0));
#199=DIRECTION('',(0.E0,0.E0,1.E0));
#200=DIRECTION('',(0.E0,-1.E0,0.E0));
#201=AXIS2_PLACEMENT_3D('',#198,#199,#200);
#203=CARTESIAN_POINT('',(0.E0,0.E0,-6.9E0));
#204=DIRECTION('',(0.E0,0.E0,-1.E0));
#205=DIRECTION('',(0.E0,-1.E0,0.E0));
#206=AXIS2_PLACEMENT_3D('',#203,#204,#205);
#208=DIRECTION('',(0.E0,3.420201433257E-1,-9.396926207859E-1));
#209=VECTOR('',#208,6.385066634855E-1);
#210=CARTESIAN_POINT('',(0.E0,-6.E0,-6.9E0));
#211=LINE('',#210,#209);
#212=CARTESIAN_POINT('',(0.E0,0.E0,-6.9E0));
#213=DIRECTION('',(0.E0,0.E0,1.E0));
#214=DIRECTION('',(0.E0,-1.E0,0.E0));
#215=AXIS2_PLACEMENT_3D('',#212,#213,#214);
#217=DIRECTION('',(0.E0,-3.420201433257E-1,-9.396926207859E-1));
#218=VECTOR('',#217,6.385066634855E-1);
#219=CARTESIAN_POINT('',(0.E0,6.E0,-6.9E0));
#220=LINE('',#219,#218);
#221=DIRECTION('',(0.E0,-3.420201433257E-1,-9.396926207859E-1));
#222=VECTOR('',#221,6.385066634855E-1);
#223=CARTESIAN_POINT('',(0.E0,-5.781617859440E0,7.5E0));
#224=LINE('',#223,#222);
#225=CARTESIAN_POINT('',(0.E0,0.E0,7.5E0));
#226=DIRECTION('',(0.E0,0.E0,1.E0));
#227=DIRECTION('',(0.E0,-1.E0,0.E0));
#228=AXIS2_PLACEMENT_3D('',#225,#226,#227);
#230=DIRECTION('',(0.E0,3.420201433257E-1,-9.396926207859E-1));
#231=VECTOR('',#230,6.385066634855E-1);
#232=CARTESIAN_POINT('',(0.E0,5.781617859440E0,7.5E0));
#233=LINE('',#232,#231);
#234=CARTESIAN_POINT('',(0.E0,0.E0,7.5E0));
#235=DIRECTION('',(0.E0,0.E0,-1.E0));
#236=DIRECTION('',(0.E0,-1.E0,0.E0));
#237=AXIS2_PLACEMENT_3D('',#234,#235,#236);
#239=CARTESIAN_POINT('',(0.E0,0.E0,7.5E0));
#240=DIRECTION('',(0.E0,0.E0,-1.E0));
#241=DIRECTION('',(0.E0,-1.E0,0.E0));
#242=AXIS2_PLACEMENT_3D('',#239,#240,#241);
#244=CARTESIAN_POINT('',(0.E0,0.E0,7.5E0));
#245=DIRECTION('',(0.E0,0.E0,1.E0));
#246=DIRECTION('',(0.E0,-1.E0,0.E0));
#247=AXIS2_PLACEMENT_3D('',#244,#245,#246);
#249=CARTESIAN_POINT('',(0.E0,-5.045E0,7.15E0));
#250=CARTESIAN_POINT('',(0.E0,-5.395E0,7.5E0));
#251=VERTEX_POINT('',#249);
#252=VERTEX_POINT('',#250);
#253=CARTESIAN_POINT('',(0.E0,-5.781617859440E0,7.5E0));
#254=CARTESIAN_POINT('',(0.E0,-6.E0,6.9E0));
#255=VERTEX_POINT('',#253);
#256=VERTEX_POINT('',#254);
#257=CARTESIAN_POINT('',(0.E0,-6.E0,-6.9E0));
#258=VERTEX_POINT('',#257);
#259=CARTESIAN_POINT('',(0.E0,-5.781617859440E0,-7.5E0));
#260=VERTEX_POINT('',#259);
#261=CARTESIAN_POINT('',(0.E0,-5.395E0,-7.5E0));
#262=CARTESIAN_POINT('',(0.E0,-5.045E0,-7.15E0));
#263=VERTEX_POINT('',#261);
#264=VERTEX_POINT('',#262);
#265=CARTESIAN_POINT('',(0.E0,5.045E0,7.15E0));
#266=CARTESIAN_POINT('',(0.E0,5.395E0,7.5E0));
#267=VERTEX_POINT('',#265);
#268=VERTEX_POINT('',#266);
#269=CARTESIAN_POINT('',(0.E0,5.781617859440E0,7.5E0));
#270=CARTESIAN_POINT('',(0.E0,6.E0,6.9E0));
#271=VERTEX_POINT('',#269);
#272=VERTEX_POINT('',#270);
#273=CARTESIAN_POINT('',(0.E0,6.E0,-6.9E0));
#274=CARTESIAN_POINT('',(0.E0,5.781617859440E0,-7.5E0));
#275=VERTEX_POINT('',#273);
#276=VERTEX_POINT('',#274);
#277=CARTESIAN_POINT('',(0.E0,5.395E0,-7.5E0));
#278=CARTESIAN_POINT('',(0.E0,5.045E0,-7.15E0));
#279=VERTEX_POINT('',#277);
#280=VERTEX_POINT('',#278);
#281=VERTEX_POINT('',#66);
#282=VERTEX_POINT('',#77);
#283=VERTEX_POINT('',#95);
#284=VERTEX_POINT('',#144);
#285=VERTEX_POINT('',#155);
#286=VERTEX_POINT('',#157);
#287=VERTEX_POINT('',#97);
#288=VERTEX_POINT('',#30);
#289=CARTESIAN_POINT('',(0.E0,0.E0,7.325E0));
#290=DIRECTION('',(0.E0,0.E0,1.E0));
#291=DIRECTION('',(0.E0,1.E0,0.E0));
#292=AXIS2_PLACEMENT_3D('',#289,#290,#291);
#293=CONICAL_SURFACE('',#292,5.22E0,4.5E1);
#295=ORIENTED_EDGE('',*,*,#294,.T.);
#297=ORIENTED_EDGE('',*,*,#296,.T.);
#299=ORIENTED_EDGE('',*,*,#298,.F.);
#301=ORIENTED_EDGE('',*,*,#300,.F.);
#302=EDGE_LOOP('',(#295,#297,#299,#301));
#303=FACE_OUTER_BOUND('',#302,.F.);
#304=ADVANCED_FACE('',(#303),#293,.F.);
#305=CARTESIAN_POINT('',(0.E0,0.E0,7.325E0));
#306=DIRECTION('',(0.E0,0.E0,1.E0));
#307=DIRECTION('',(0.E0,1.E0,0.E0));
#308=AXIS2_PLACEMENT_3D('',#305,#306,#307);
#309=CONICAL_SURFACE('',#308,5.22E0,4.5E1);
#310=ORIENTED_EDGE('',*,*,#294,.F.);
#312=ORIENTED_EDGE('',*,*,#311,.T.);
#313=ORIENTED_EDGE('',*,*,#298,.T.);
#315=ORIENTED_EDGE('',*,*,#314,.F.);
#316=EDGE_LOOP('',(#310,#312,#313,#315));
#317=FACE_OUTER_BOUND('',#316,.F.);
#318=ADVANCED_FACE('',(#317),#309,.F.);
#319=CARTESIAN_POINT('',(0.E0,0.E0,8.25E0));
#320=DIRECTION('',(0.E0,0.E0,-1.E0));
#321=DIRECTION('',(0.E0,-1.E0,0.E0));
#322=AXIS2_PLACEMENT_3D('',#319,#320,#321);
#323=CYLINDRICAL_SURFACE('',#322,5.045E0);
#325=ORIENTED_EDGE('',*,*,#324,.F.);
#327=ORIENTED_EDGE('',*,*,#326,.T.);
#328=ORIENTED_EDGE('',*,*,#311,.F.);
#330=ORIENTED_EDGE('',*,*,#329,.F.);
#332=ORIENTED_EDGE('',*,*,#331,.T.);
#334=ORIENTED_EDGE('',*,*,#333,.T.);
#336=ORIENTED_EDGE('',*,*,#335,.F.);
#337=EDGE_LOOP('',(#325,#327,#328,#330,#332,#334,#336));
#338=FACE_OUTER_BOUND('',#337,.F.);
#339=ADVANCED_FACE('',(#338),#323,.F.);
#340=CARTESIAN_POINT('',(0.E0,6.E0,0.E0));
#341=DIRECTION('',(0.E0,-1.E0,0.E0));
#342=DIRECTION('',(1.E0,0.E0,0.E0));
#343=AXIS2_PLACEMENT_3D('',#340,#341,#342);
#344=CYLINDRICAL_SURFACE('',#343,1.5E0);
#346=ORIENTED_EDGE('',*,*,#345,.T.);
#348=ORIENTED_EDGE('',*,*,#347,.T.);
#350=ORIENTED_EDGE('',*,*,#349,.T.);
#351=ORIENTED_EDGE('',*,*,#324,.T.);
#353=ORIENTED_EDGE('',*,*,#352,.F.);
#355=ORIENTED_EDGE('',*,*,#354,.T.);
#356=EDGE_LOOP('',(#346,#348,#350,#351,#353,#355));
#357=FACE_OUTER_BOUND('',#356,.F.);
#358=ADVANCED_FACE('',(#357),#344,.F.);
#359=CARTESIAN_POINT('',(0.E0,0.E0,8.25E0));
#360=DIRECTION('',(0.E0,0.E0,-1.E0));
#361=DIRECTION('',(0.E0,-1.E0,0.E0));
#362=AXIS2_PLACEMENT_3D('',#359,#360,#361);
#363=CYLINDRICAL_SURFACE('',#362,6.E0);
#364=ORIENTED_EDGE('',*,*,#345,.F.);
#366=ORIENTED_EDGE('',*,*,#365,.F.);
#368=ORIENTED_EDGE('',*,*,#367,.F.);
#370=ORIENTED_EDGE('',*,*,#369,.T.);
#372=ORIENTED_EDGE('',*,*,#371,.T.);
#374=ORIENTED_EDGE('',*,*,#373,.F.);
#376=ORIENTED_EDGE('',*,*,#375,.F.);
#377=EDGE_LOOP('',(#364,#366,#368,#370,#372,#374,#376));
#378=FACE_OUTER_BOUND('',#377,.F.);
#379=ADVANCED_FACE('',(#378),#363,.T.);
#380=CARTESIAN_POINT('',(0.E0,0.E0,8.25E0));
#381=DIRECTION('',(0.E0,0.E0,-1.E0));
#382=DIRECTION('',(0.E0,-1.E0,0.E0));
#383=AXIS2_PLACEMENT_3D('',#380,#381,#382);
#384=CYLINDRICAL_SURFACE('',#383,6.E0);
#385=ORIENTED_EDGE('',*,*,#354,.F.);
#387=ORIENTED_EDGE('',*,*,#386,.F.);
#388=ORIENTED_EDGE('',*,*,#373,.T.);
#390=ORIENTED_EDGE('',*,*,#389,.F.);
#391=ORIENTED_EDGE('',*,*,#369,.F.);
#393=ORIENTED_EDGE('',*,*,#392,.T.);
#394=ORIENTED_EDGE('',*,*,#365,.T.);
#395=EDGE_LOOP('',(#385,#387,#388,#390,#391,#393,#394));
#396=FACE_OUTER_BOUND('',#395,.F.);
#397=ADVANCED_FACE('',(#396),#384,.T.);
#398=CARTESIAN_POINT('',(0.E0,6.E0,0.E0));
#399=DIRECTION('',(0.E0,-1.E0,0.E0));
#400=DIRECTION('',(1.E0,0.E0,0.E0));
#401=AXIS2_PLACEMENT_3D('',#398,#399,#400);
#402=CYLINDRICAL_SURFACE('',#401,1.5E0);
#403=ORIENTED_EDGE('',*,*,#375,.T.);
#404=ORIENTED_EDGE('',*,*,#386,.T.);
#405=ORIENTED_EDGE('',*,*,#352,.T.);
#406=ORIENTED_EDGE('',*,*,#335,.T.);
#408=ORIENTED_EDGE('',*,*,#407,.T.);
#409=ORIENTED_EDGE('',*,*,#347,.F.);
#410=EDGE_LOOP('',(#403,#404,#405,#406,#408,#409));
#411=FACE_OUTER_BOUND('',#410,.F.);
#412=ADVANCED_FACE('',(#411),#402,.F.);
#413=CARTESIAN_POINT('',(0.E0,0.E0,8.25E0));
#414=DIRECTION('',(0.E0,0.E0,-1.E0));
#415=DIRECTION('',(0.E0,-1.E0,0.E0));
#416=AXIS2_PLACEMENT_3D('',#413,#414,#415);
#417=CYLINDRICAL_SURFACE('',#416,5.045E0);
#418=ORIENTED_EDGE('',*,*,#349,.F.);
#419=ORIENTED_EDGE('',*,*,#407,.F.);
#420=ORIENTED_EDGE('',*,*,#333,.F.);
#422=ORIENTED_EDGE('',*,*,#421,.F.);
#423=ORIENTED_EDGE('',*,*,#329,.T.);
#424=ORIENTED_EDGE('',*,*,#300,.T.);
#425=ORIENTED_EDGE('',*,*,#326,.F.);
#426=EDGE_LOOP('',(#418,#419,#420,#422,#423,#424,#425));
#427=FACE_OUTER_BOUND('',#426,.F.);
#428=ADVANCED_FACE('',(#427),#417,.F.);
#429=CARTESIAN_POINT('',(0.E0,0.E0,-7.325E0));
#430=DIRECTION('',(0.E0,0.E0,-1.E0));
#431=DIRECTION('',(0.E0,-1.E0,0.E0));
#432=AXIS2_PLACEMENT_3D('',#429,#430,#431);
#433=CONICAL_SURFACE('',#432,5.22E0,4.5E1);
#435=ORIENTED_EDGE('',*,*,#434,.T.);
#436=ORIENTED_EDGE('',*,*,#421,.T.);
#438=ORIENTED_EDGE('',*,*,#437,.F.);
#440=ORIENTED_EDGE('',*,*,#439,.F.);
#441=EDGE_LOOP('',(#435,#436,#438,#440));
#442=FACE_OUTER_BOUND('',#441,.F.);
#443=ADVANCED_FACE('',(#442),#433,.F.);
#444=CARTESIAN_POINT('',(0.E0,0.E0,-7.325E0));
#445=DIRECTION('',(0.E0,0.E0,-1.E0));
#446=DIRECTION('',(0.E0,-1.E0,0.E0));
#447=AXIS2_PLACEMENT_3D('',#444,#445,#446);
#448=CONICAL_SURFACE('',#447,5.22E0,4.5E1);
#449=ORIENTED_EDGE('',*,*,#434,.F.);
#451=ORIENTED_EDGE('',*,*,#450,.T.);
#452=ORIENTED_EDGE('',*,*,#437,.T.);
#453=ORIENTED_EDGE('',*,*,#331,.F.);
#454=EDGE_LOOP('',(#449,#451,#452,#453));
#455=FACE_OUTER_BOUND('',#454,.F.);
#456=ADVANCED_FACE('',(#455),#448,.F.);
#457=CARTESIAN_POINT('',(0.E0,0.E0,-7.5E0));
#458=DIRECTION('',(0.E0,0.E0,-1.E0));
#459=DIRECTION('',(0.E0,-1.E0,0.E0));
#460=AXIS2_PLACEMENT_3D('',#457,#458,#459);
#461=PLANE('',#460);
#463=ORIENTED_EDGE('',*,*,#462,.F.);
#465=ORIENTED_EDGE('',*,*,#464,.T.);
#466=EDGE_LOOP('',(#463,#465));
#467=FACE_OUTER_BOUND('',#466,.F.);
#468=ORIENTED_EDGE('',*,*,#450,.F.);
#469=ORIENTED_EDGE('',*,*,#439,.T.);
#470=EDGE_LOOP('',(#468,#469));
#471=FACE_BOUND('',#470,.F.);
#472=ADVANCED_FACE('',(#467,#471),#461,.T.);
#473=CARTESIAN_POINT('',(0.E0,0.E0,-7.2E0));
#474=DIRECTION('',(0.E0,0.E0,1.E0));
#475=DIRECTION('',(0.E0,1.E0,0.E0));
#476=AXIS2_PLACEMENT_3D('',#473,#474,#475);
#477=CONICAL_SURFACE('',#476,5.890808929720E0,2.E1);
#479=ORIENTED_EDGE('',*,*,#478,.T.);
#480=ORIENTED_EDGE('',*,*,#462,.T.);
#482=ORIENTED_EDGE('',*,*,#481,.F.);
#483=ORIENTED_EDGE('',*,*,#371,.F.);
#484=EDGE_LOOP('',(#479,#480,#482,#483));
#485=FACE_OUTER_BOUND('',#484,.F.);
#486=ADVANCED_FACE('',(#485),#477,.T.);
#487=CARTESIAN_POINT('',(0.E0,0.E0,-7.2E0));
#488=DIRECTION('',(0.E0,0.E0,1.E0));
#489=DIRECTION('',(0.E0,1.E0,0.E0));
#490=AXIS2_PLACEMENT_3D('',#487,#488,#489);
#491=CONICAL_SURFACE('',#490,5.890808929720E0,2.E1);
#492=ORIENTED_EDGE('',*,*,#478,.F.);
#493=ORIENTED_EDGE('',*,*,#389,.T.);
#494=ORIENTED_EDGE('',*,*,#481,.T.);
#495=ORIENTED_EDGE('',*,*,#464,.F.);
#496=EDGE_LOOP('',(#492,#493,#494,#495));
#497=FACE_OUTER_BOUND('',#496,.F.);
#498=ADVANCED_FACE('',(#497),#491,.T.);
#499=CARTESIAN_POINT('',(0.E0,0.E0,7.2E0));
#500=DIRECTION('',(0.E0,0.E0,-1.E0));
#501=DIRECTION('',(0.E0,-1.E0,0.E0));
#502=AXIS2_PLACEMENT_3D('',#499,#500,#501);
#503=CONICAL_SURFACE('',#502,5.890808929720E0,2.E1);
#505=ORIENTED_EDGE('',*,*,#504,.F.);
#507=ORIENTED_EDGE('',*,*,#506,.T.);
#509=ORIENTED_EDGE('',*,*,#508,.T.);
#510=ORIENTED_EDGE('',*,*,#392,.F.);
#511=EDGE_LOOP('',(#505,#507,#509,#510));
#512=FACE_OUTER_BOUND('',#511,.F.);
#513=ADVANCED_FACE('',(#512),#503,.T.);
#514=CARTESIAN_POINT('',(0.E0,0.E0,7.2E0));
#515=DIRECTION('',(0.E0,0.E0,-1.E0));
#516=DIRECTION('',(0.E0,-1.E0,0.E0));
#517=AXIS2_PLACEMENT_3D('',#514,#515,#516);
#518=CONICAL_SURFACE('',#517,5.890808929720E0,2.E1);
#519=ORIENTED_EDGE('',*,*,#504,.T.);
#520=ORIENTED_EDGE('',*,*,#367,.T.);
#521=ORIENTED_EDGE('',*,*,#508,.F.);
#523=ORIENTED_EDGE('',*,*,#522,.F.);
#524=EDGE_LOOP('',(#519,#520,#521,#523));
#525=FACE_OUTER_BOUND('',#524,.F.);
#526=ADVANCED_FACE('',(#525),#518,.T.);
#527=CARTESIAN_POINT('',(0.E0,0.E0,7.5E0));
#528=DIRECTION('',(0.E0,0.E0,-1.E0));
#529=DIRECTION('',(0.E0,-1.E0,0.E0));
#530=AXIS2_PLACEMENT_3D('',#527,#528,#529);
#531=PLANE('',#530);
#532=ORIENTED_EDGE('',*,*,#506,.F.);
#533=ORIENTED_EDGE('',*,*,#522,.T.);
#534=EDGE_LOOP('',(#532,#533));
#535=FACE_OUTER_BOUND('',#534,.F.);
#536=ORIENTED_EDGE('',*,*,#296,.F.);
#537=ORIENTED_EDGE('',*,*,#314,.T.);
#538=EDGE_LOOP('',(#536,#537));
#539=FACE_BOUND('',#538,.F.);
#540=ADVANCED_FACE('',(#535,#539),#531,.F.);
#541=CLOSED_SHELL('',(#304,#318,#339,#358,#379,#397,#412,#428,#443,#456,#472,
#486,#498,#513,#526,#540));
#542=MANIFOLD_SOLID_BREP('',#541);
#544=DIMENSIONAL_EXPONENTS(0.E0,0.E0,0.E0,0.E0,0.E0,0.E0,0.E0);
#546=PLANE_ANGLE_MEASURE_WITH_UNIT(PLANE_ANGLE_MEASURE(1.745329251994E-2),#545);
#547=(CONVERSION_BASED_UNIT('DEGREE',#546)NAMED_UNIT(*)PLANE_ANGLE_UNIT());
#549=UNCERTAINTY_MEASURE_WITH_UNIT(LENGTH_MEASURE(2.264859732568E-3),#543,
'closure',
'Maximum model space distance between geometric entities at asserted connectivities');
#550=(GEOMETRIC_REPRESENTATION_CONTEXT(3)GLOBAL_UNCERTAINTY_ASSIGNED_CONTEXT((
#549))GLOBAL_UNIT_ASSIGNED_CONTEXT((#543,#547,#548))REPRESENTATION_CONTEXT
('ID1','3'));
#552=APPLICATION_CONTEXT(
'CONFIGURATION CONTROLLED 3D DESIGNS OF MECHANICAL PARTS AND ASSEMBLIES');
#553=APPLICATION_PROTOCOL_DEFINITION('international standard',
'config_control_design',1994,#552);
#554=DESIGN_CONTEXT('',#552,'design');
#555=MECHANICAL_CONTEXT('',#552,'mechanical');
#556=PRODUCT('PG__A_2016_10_21','PG__A_2016_10_21','NOT SPECIFIED',(#555));
#557=PRODUCT_DEFINITION_FORMATION_WITH_SPECIFIED_SOURCE('1','LAST_VERSION',#556,
.MADE.);
#561=PRODUCT_CATEGORY('part','');
#562=PRODUCT_RELATED_PRODUCT_CATEGORY('detail','',(#556));
#563=PRODUCT_CATEGORY_RELATIONSHIP('','',#561,#562);
#564=SECURITY_CLASSIFICATION_LEVEL('unclassified');
#565=SECURITY_CLASSIFICATION('','',#564);
#566=CC_DESIGN_SECURITY_CLASSIFICATION(#565,(#557));
#567=APPROVAL_STATUS('approved');
#568=APPROVAL(#567,'');
#569=CC_DESIGN_APPROVAL(#568,(#565,#557,#558));
#570=CALENDAR_DATE(116,5,8);
#571=COORDINATED_UNIVERSAL_TIME_OFFSET(2,0,.AHEAD.);
#572=LOCAL_TIME(11,46,9.E0,#571);
#573=DATE_AND_TIME(#570,#572);
#574=APPROVAL_DATE_TIME(#573,#568);
#575=DATE_TIME_ROLE('creation_date');
#576=CC_DESIGN_DATE_AND_TIME_ASSIGNMENT(#573,#575,(#558));
#577=DATE_TIME_ROLE('classification_date');
#578=CC_DESIGN_DATE_AND_TIME_ASSIGNMENT(#573,#577,(#565));
#579=PERSON('UNSPECIFIED','UNSPECIFIED',$,$,$,$);
#580=ORGANIZATION('UNSPECIFIED','UNSPECIFIED','UNSPECIFIED');
#581=PERSON_AND_ORGANIZATION(#579,#580);
#582=APPROVAL_ROLE('approver');
#583=APPROVAL_PERSON_ORGANIZATION(#581,#568,#582);
#584=PERSON_AND_ORGANIZATION_ROLE('creator');
#585=CC_DESIGN_PERSON_AND_ORGANIZATION_ASSIGNMENT(#581,#584,(#557,#558));
#586=PERSON_AND_ORGANIZATION_ROLE('design_supplier');
#587=CC_DESIGN_PERSON_AND_ORGANIZATION_ASSIGNMENT(#581,#586,(#557));
#588=PERSON_AND_ORGANIZATION_ROLE('classification_officer');
#589=CC_DESIGN_PERSON_AND_ORGANIZATION_ASSIGNMENT(#581,#588,(#565));
#590=PERSON_AND_ORGANIZATION_ROLE('design_owner');
#591=CC_DESIGN_PERSON_AND_ORGANIZATION_ASSIGNMENT(#581,#590,(#556));
#5=CIRCLE('',#4,5.045E0);
#14=CIRCLE('',#13,5.045E0);
#31=B_SPLINE_CURVE_WITH_KNOTS('',3,(#19,#20,#21,#22,#23,#24,#25,#26,#27,#28,#29,
#30),.UNSPECIFIED.,.F.,.F.,(4,1,1,1,1,1,1,1,1,4),(0.E0,1.111111111111E-1,
2.222222222222E-1,3.333333333333E-1,4.444444444444E-1,5.555555555556E-1,
6.666666666667E-1,7.777777777778E-1,8.888888888889E-1,1.E0),.UNSPECIFIED.);
#44=CIRCLE('',#43,5.045E0);
#61=B_SPLINE_CURVE_WITH_KNOTS('',3,(#49,#50,#51,#52,#53,#54,#55,#56,#57,#58,#59,
#60),.UNSPECIFIED.,.F.,.F.,(4,1,1,1,1,1,1,1,1,4),(0.E0,1.111111111111E-1,
2.222222222222E-1,3.333333333333E-1,4.444444444444E-1,5.555555555556E-1,
6.666666666667E-1,7.777777777778E-1,8.888888888889E-1,1.E0),.UNSPECIFIED.);
#78=B_SPLINE_CURVE_WITH_KNOTS('',3,(#66,#67,#68,#69,#70,#71,#72,#73,#74,#75,#76,
#77),.UNSPECIFIED.,.F.,.F.,(4,1,1,1,1,1,1,1,1,4),(0.E0,1.111111111111E-1,
2.222222222222E-1,3.333333333333E-1,4.444444444444E-1,5.555555555556E-1,
6.666666666667E-1,7.777777777778E-1,8.888888888889E-1,1.E0),.UNSPECIFIED.);
#83=CIRCLE('',#82,6.E0);
#96=B_SPLINE_CURVE_WITH_KNOTS('',3,(#84,#85,#86,#87,#88,#89,#90,#91,#92,#93,#94,
#95),.UNSPECIFIED.,.F.,.F.,(4,1,1,1,1,1,1,1,1,4),(0.E0,1.111111111111E-1,
2.222222222222E-1,3.333333333333E-1,4.444444444444E-1,5.555555555556E-1,
6.666666666667E-1,7.777777777778E-1,8.888888888889E-1,1.E0),.UNSPECIFIED.);
#109=B_SPLINE_CURVE_WITH_KNOTS('',3,(#97,#98,#99,#100,#101,#102,#103,#104,#105,
#106,#107,#108),.UNSPECIFIED.,.F.,.F.,(4,1,1,1,1,1,1,1,1,4),(0.E0,
1.111111111111E-1,2.222222222222E-1,3.333333333333E-1,4.444444444444E-1,
5.555555555556E-1,6.666666666667E-1,7.777777777778E-1,8.888888888889E-1,1.E0),
.UNSPECIFIED.);
#122=B_SPLINE_CURVE_WITH_KNOTS('',3,(#110,#111,#112,#113,#114,#115,#116,#117,
#118,#119,#120,#121),.UNSPECIFIED.,.F.,.F.,(4,1,1,1,1,1,1,1,1,4),(0.E0,
1.111111111111E-1,2.222222222222E-1,3.333333333333E-1,4.444444444444E-1,
5.555555555556E-1,6.666666666667E-1,7.777777777778E-1,8.888888888889E-1,1.E0),
.UNSPECIFIED.);
#135=CIRCLE('',#134,6.E0);
#156=B_SPLINE_CURVE_WITH_KNOTS('',3,(#144,#145,#146,#147,#148,#149,#150,#151,
#152,#153,#154,#155),.UNSPECIFIED.,.F.,.F.,(4,1,1,1,1,1,1,1,1,4),(0.E0,
1.111111111111E-1,2.222222222222E-1,3.333333333333E-1,4.444444444444E-1,
5.555555555556E-1,6.666666666667E-1,7.777777777778E-1,8.888888888889E-1,1.E0),
.UNSPECIFIED.);
#169=B_SPLINE_CURVE_WITH_KNOTS('',3,(#157,#158,#159,#160,#161,#162,#163,#164,
#165,#166,#167,#168),.UNSPECIFIED.,.F.,.F.,(4,1,1,1,1,1,1,1,1,4),(0.E0,
1.111111111111E-1,2.222222222222E-1,3.333333333333E-1,4.444444444444E-1,
5.555555555556E-1,6.666666666667E-1,7.777777777778E-1,8.888888888889E-1,1.E0),
.UNSPECIFIED.);
#174=CIRCLE('',#173,5.045E0);
#179=CIRCLE('',#178,5.395E0);
#188=CIRCLE('',#187,5.395E0);
#197=CIRCLE('',#196,5.781617859440E0);
#202=CIRCLE('',#201,5.781617859440E0);
#207=CIRCLE('',#206,6.E0);
#216=CIRCLE('',#215,6.E0);
#229=CIRCLE('',#228,5.781617859440E0);
#238=CIRCLE('',#237,5.781617859440E0);
#243=CIRCLE('',#242,5.395E0);
#248=CIRCLE('',#247,5.395E0);
#294=EDGE_CURVE('',#251,#252,#9,.T.);
#296=EDGE_CURVE('',#252,#268,#243,.T.);
#298=EDGE_CURVE('',#267,#268,#18,.T.);
#300=EDGE_CURVE('',#251,#267,#5,.T.);
#311=EDGE_CURVE('',#251,#267,#14,.T.);
#314=EDGE_CURVE('',#252,#268,#248,.T.);
#324=EDGE_CURVE('',#285,#288,#31,.T.);
#326=EDGE_CURVE('',#285,#267,#35,.T.);
#329=EDGE_CURVE('',#264,#251,#39,.T.);
#331=EDGE_CURVE('',#264,#280,#44,.T.);
#333=EDGE_CURVE('',#280,#286,#48,.T.);
#335=EDGE_CURVE('',#288,#286,#61,.T.);
#345=EDGE_CURVE('',#281,#282,#78,.T.);
#347=EDGE_CURVE('',#282,#284,#143,.T.);
#349=EDGE_CURVE('',#284,#285,#156,.T.);
#352=EDGE_CURVE('',#287,#288,#65,.T.);
#354=EDGE_CURVE('',#287,#281,#109,.T.);
#365=EDGE_CURVE('',#272,#281,#139,.T.);
#367=EDGE_CURVE('',#256,#272,#83,.T.);
#369=EDGE_CURVE('',#256,#258,#130,.T.);
#371=EDGE_CURVE('',#258,#275,#207,.T.);
#373=EDGE_CURVE('',#283,#275,#126,.T.);
#375=EDGE_CURVE('',#282,#283,#96,.T.);
#386=EDGE_CURVE('',#283,#287,#122,.T.);
#389=EDGE_CURVE('',#258,#275,#216,.T.);
#392=EDGE_CURVE('',#256,#272,#135,.T.);
#407=EDGE_CURVE('',#286,#284,#169,.T.);
#421=EDGE_CURVE('',#264,#280,#174,.T.);
#434=EDGE_CURVE('',#263,#264,#183,.T.);
#437=EDGE_CURVE('',#279,#280,#192,.T.);
#439=EDGE_CURVE('',#263,#279,#179,.T.);
#450=EDGE_CURVE('',#263,#279,#188,.T.);
#462=EDGE_CURVE('',#260,#276,#197,.T.);
#464=EDGE_CURVE('',#260,#276,#202,.T.);
#478=EDGE_CURVE('',#258,#260,#211,.T.);
#481=EDGE_CURVE('',#275,#276,#220,.T.);
#504=EDGE_CURVE('',#255,#256,#224,.T.);
#506=EDGE_CURVE('',#255,#271,#229,.T.);
#508=EDGE_CURVE('',#271,#272,#233,.T.);
#522=EDGE_CURVE('',#255,#271,#238,.T.);
#543=(LENGTH_UNIT()NAMED_UNIT(*)SI_UNIT(.MILLI.,.METRE.));
#545=(NAMED_UNIT(*)PLANE_ANGLE_UNIT()SI_UNIT($,.RADIAN.));
#548=(NAMED_UNIT(*)SI_UNIT($,.STERADIAN.)SOLID_ANGLE_UNIT());
#551=ADVANCED_BREP_SHAPE_REPRESENTATION('',(#542),#550);
#558=PRODUCT_DEFINITION('design','',#557,#554);
#559=PRODUCT_DEFINITION_SHAPE('','SHAPE FOR PG__A_2016_10_21.',#558);
#560=SHAPE_DEFINITION_REPRESENTATION(#559,#551);
ENDSEC;
END-ISO-10303-21;
