ISO-10303-21;
HEADER;
FILE_DESCRIPTION((''),'2;1');
FILE_NAME('PG__A_2016_10_21','2016-08-08T',('deusss58'),(''),
'PRO/ENGINEER BY PARAMETRIC TECHNOLOGY CORPORATION, 2014430',
'PRO/ENGINEER BY PARAMETRIC TECHNOLOGY CORPORATION, 2014430','');
FILE_SCHEMA(('CONFIG_CONTROL_DESIGN'));
ENDSEC;
DATA;
#1=CARTESIAN_POINT('',(0.E0,0.E0,5.69E1));
#2=DIRECTION('',(0.E0,0.E0,-1.E0));
#3=DIRECTION('',(0.E0,-1.E0,0.E0));
#4=AXIS2_PLACEMENT_3D('',#1,#2,#3);
#6=DIRECTION('',(0.E0,-7.071067811865E-1,7.071067811866E-1));
#7=VECTOR('',#6,8.485281374239E-1);
#8=CARTESIAN_POINT('',(0.E0,-5.5115E1,5.69E1));
#9=LINE('',#8,#7);
#10=CARTESIAN_POINT('',(0.E0,0.E0,5.69E1));
#11=DIRECTION('',(0.E0,0.E0,1.E0));
#12=DIRECTION('',(0.E0,-1.E0,0.E0));
#13=AXIS2_PLACEMENT_3D('',#10,#11,#12);
#15=DIRECTION('',(0.E0,7.071067811865E-1,7.071067811866E-1));
#16=VECTOR('',#15,8.485281374239E-1);
#17=CARTESIAN_POINT('',(-1.223798840044E-14,5.5115E1,5.69E1));
#18=LINE('',#17,#16);
#19=CARTESIAN_POINT('',(-5.034582675026E-14,5.5115E1,4.E0));
#20=CARTESIAN_POINT('',(3.021350110187E-1,5.5115E1,4.E0));
#21=CARTESIAN_POINT('',(8.904931136628E-1,5.511017606472E1,3.934561024159E0));
#22=CARTESIAN_POINT('',(1.759590289721E0,5.508893476651E1,3.629810556121E0));
#23=CARTESIAN_POINT('',(2.511550165726E0,5.505923376894E1,3.156332224447E0));
#24=CARTESIAN_POINT('',(3.160450373657E0,5.502528835242E1,2.506833271888E0));
#25=CARTESIAN_POINT('',(3.633741053487E0,5.499551727767E1,1.751030780041E0));
#26=CARTESIAN_POINT('',(3.934586960671E0,5.497448920882E1,8.882278558362E-1));
#27=CARTESIAN_POINT('',(3.999999746691E0,5.496965736722E1,3.013364522055E-1));
#28=CARTESIAN_POINT('',(3.999999746691E0,5.496965736722E1,2.286325124748E-6));
#30=DIRECTION('',(0.E0,0.E0,1.E0));
#31=VECTOR('',#30,5.29E1);
#32=CARTESIAN_POINT('',(-5.034582675026E-14,5.5115E1,4.E0));
#33=LINE('',#32,#31);
#34=DIRECTION('',(0.E0,0.E0,1.E0));
#35=VECTOR('',#34,1.138E2);
#36=CARTESIAN_POINT('',(0.E0,-5.5115E1,-5.69E1));
#37=LINE('',#36,#35);
#38=CARTESIAN_POINT('',(0.E0,0.E0,-5.69E1));
#39=DIRECTION('',(0.E0,0.E0,1.E0));
#40=DIRECTION('',(0.E0,-1.E0,0.E0));
#41=AXIS2_PLACEMENT_3D('',#38,#39,#40);
#43=DIRECTION('',(0.E0,0.E0,1.E0));
#44=VECTOR('',#43,5.29E1);
#45=CARTESIAN_POINT('',(-1.223798840044E-14,5.5115E1,-5.69E1));
#46=LINE('',#45,#44);
#47=CARTESIAN_POINT('',(3.999999746691E0,5.496965736722E1,2.286325124748E-6));
#48=CARTESIAN_POINT('',(3.999999746691E0,5.496965736722E1,-3.318482562759E-1));
#49=CARTESIAN_POINT('',(3.918988846754E0,5.497561725031E1,-9.445990830197E-1));
#50=CARTESIAN_POINT('',(3.640611837405E0,5.499495175281E1,-1.714026068347E0));
#51=CARTESIAN_POINT('',(3.276092789463E0,5.501803835694E1,-2.328952730076E0));
#52=CARTESIAN_POINT('',(2.840940719932E0,5.504237316293E1,-2.840692641571E0));
#53=CARTESIAN_POINT('',(2.359964706203E0,5.506522402481E1,-3.249531297217E0));
#54=CARTESIAN_POINT('',(1.827457017829E0,5.508564277447E1,-3.576565162556E0));
#55=CARTESIAN_POINT('',(1.243272225885E0,5.510208538354E1,-3.819544593336E0));
#56=CARTESIAN_POINT('',(6.257857278018E-1,5.511261831487E1,-3.967386036874E0));
#57=CARTESIAN_POINT('',(2.102484777476E-1,5.5115E1,-4.E0));
#58=CARTESIAN_POINT('',(-2.639552242490E-14,5.5115E1,-4.E0));
#60=DIRECTION('',(-1.059409729895E-7,-9.999999999995E-1,9.562039161543E-7));
#61=VECTOR('',#60,2.391043465324E0);
#62=CARTESIAN_POINT('',(4.E0,5.736070083254E1,0.E0));
#63=LINE('',#62,#61);
#64=CARTESIAN_POINT('',(-1.562377587473E-13,5.75E1,4.E0));
#65=CARTESIAN_POINT('',(-3.018874682677E-1,5.75E1,4.E0));
#66=CARTESIAN_POINT('',(-8.901107648543E-1,5.749539565580E1,3.934857681429E0));
#67=CARTESIAN_POINT('',(-1.763012875800E0,5.747492139460E1,3.628382042885E0));
#68=CARTESIAN_POINT('',(-2.514063270009E0,5.744642924198E1,3.154098899882E0));
#69=CARTESIAN_POINT('',(-3.161423873697E0,5.741396025511E1,2.505660545301E0));
#70=CARTESIAN_POINT('',(-3.634922932379E0,5.738540722388E1,1.748403471037E0));
#71=CARTESIAN_POINT('',(-3.934309872094E0,5.736534887740E1,8.886206654353E-1));
#72=CARTESIAN_POINT('',(-4.E0,5.736070083254E1,3.015473220216E-1));
#73=CARTESIAN_POINT('',(-4.E0,5.736070083254E1,0.E0));
#75=CARTESIAN_POINT('',(0.E0,0.E0,5.63E1));
#76=DIRECTION('',(0.E0,0.E0,-1.E0));
#77=DIRECTION('',(0.E0,-1.E0,0.E0));
#78=AXIS2_PLACEMENT_3D('',#75,#76,#77);
#80=CARTESIAN_POINT('',(-4.E0,5.736070083254E1,0.E0));
#81=CARTESIAN_POINT('',(-4.E0,5.736070083254E1,-3.014316929276E-1));
#82=CARTESIAN_POINT('',(-3.934547157888E0,5.736533418967E1,-8.884579015537E-1));
#83=CARTESIAN_POINT('',(-3.633601172432E0,5.738549203492E1,-1.751311095220E0));
#84=CARTESIAN_POINT('',(-3.160315869987E0,5.741402256646E1,-2.507008174085E0));
#85=CARTESIAN_POINT('',(-2.511245844826E0,5.744656270916E1,-3.156587795951E0));
#86=CARTESIAN_POINT('',(-1.759226671246E0,5.747502737136E1,-3.629981601909E0));
#87=CARTESIAN_POINT('',(-8.901940361697E-1,5.749537994082E1,-3.934615358944E0));
#88=CARTESIAN_POINT('',(-3.020177527668E-1,5.75E1,-4.E0));
#89=CARTESIAN_POINT('',(9.449410207485E-14,5.75E1,-4.E0));
#91=CARTESIAN_POINT('',(4.E0,5.736070083254E1,0.E0));
#92=CARTESIAN_POINT('',(4.E0,5.736070083254E1,3.013603730799E-1));
#93=CARTESIAN_POINT('',(3.934575340384E0,5.736533211452E1,8.882811394677E-1));
#94=CARTESIAN_POINT('',(3.633723390180E0,5.738548428054E1,1.751063755788E0));
#95=CARTESIAN_POINT('',(3.160435761899E0,5.741401564747E1,2.506849601423E0));
#96=CARTESIAN_POINT('',(2.511549086050E0,5.744654878413E1,3.156331031182E0));
#97=CARTESIAN_POINT('',(1.759608700512E0,5.747501553221E1,3.629799414184E0));
#98=CARTESIAN_POINT('',(8.905350557178E-1,5.749537545786E1,3.934551464267E0));
#99=CARTESIAN_POINT('',(3.021554270987E-1,5.75E1,4.E0));
#100=CARTESIAN_POINT('',(-1.562377587473E-13,5.75E1,4.E0));
#102=CARTESIAN_POINT('',(9.449410207485E-14,5.75E1,-4.E0));
#103=CARTESIAN_POINT('',(2.102387940191E-1,5.75E1,-4.E0));
#104=CARTESIAN_POINT('',(6.257576643106E-1,5.749771732105E1,-3.967389225891E0));
#105=CARTESIAN_POINT('',(1.243227849153E0,5.748762205690E1,-3.819558279740E0));
#106=CARTESIAN_POINT('',(1.827407359540E0,5.747186256713E1,-3.576590277888E0));
#107=CARTESIAN_POINT('',(2.359917715124E0,5.745229222350E1,-3.249565205467E0));
#108=CARTESIAN_POINT('',(2.840896224273E0,5.743039140890E1,-2.840736892338E0));
#109=CARTESIAN_POINT('',(3.276058637627E0,5.740706865499E1,-2.329001836125E0));
#110=CARTESIAN_POINT('',(3.640592294540E0,5.738494249342E1,-1.714068711646E0));
#111=CARTESIAN_POINT('',(3.918980963210E0,5.736641287818E1,-9.446375925232E-1));
#112=CARTESIAN_POINT('',(4.E0,5.736070083254E1,-3.318619118706E-1));
#113=CARTESIAN_POINT('',(4.E0,5.736070083254E1,0.E0));
#115=DIRECTION('',(0.E0,0.E0,-1.E0));
#116=VECTOR('',#115,5.23E1);
#117=CARTESIAN_POINT('',(9.449410207485E-14,5.75E1,-4.E0));
#118=LINE('',#117,#116);
#119=DIRECTION('',(0.E0,0.E0,-1.E0));
#120=VECTOR('',#119,1.126E2);
#121=CARTESIAN_POINT('',(0.E0,-5.75E1,5.63E1));
#122=LINE('',#121,#120);
#123=CARTESIAN_POINT('',(0.E0,0.E0,5.63E1));
#124=DIRECTION('',(0.E0,0.E0,1.E0));
#125=DIRECTION('',(0.E0,-1.E0,0.E0));
#126=AXIS2_PLACEMENT_3D('',#123,#124,#125);
#128=DIRECTION('',(0.E0,0.E0,-1.E0));
#129=VECTOR('',#128,5.23E1);
#130=CARTESIAN_POINT('',(-1.276756478319E-14,5.75E1,5.63E1));
#131=LINE('',#130,#129);
#132=DIRECTION('',(-1.947647327511E-9,-1.E0,6.731279812728E-9));
#133=VECTOR('',#132,2.391043521530E0);
#134=CARTESIAN_POINT('',(-4.E0,5.736070083254E1,0.E0));
#135=LINE('',#134,#133);
#136=CARTESIAN_POINT('',(-4.000000004657E0,5.496965731101E1,1.609478331440E-8));
#137=CARTESIAN_POINT('',(-4.000000004657E0,5.496965731101E1,3.015274174299E-1));
#138=CARTESIAN_POINT('',(-3.934319959069E0,5.497450682981E1,8.885737319003E-1));
#139=CARTESIAN_POINT('',(-3.634937969138E0,5.499543704202E1,1.748375707198E0));
#140=CARTESIAN_POINT('',(-3.161435929916E0,5.502523070053E1,2.505647142191E0));
#141=CARTESIAN_POINT('',(-2.514062924667E0,5.505910910179E1,3.154101047665E0));
#142=CARTESIAN_POINT('',(-1.762994195618E0,5.508883655787E1,3.628393250735E0));
#143=CARTESIAN_POINT('',(-8.900692731610E-1,5.511019712855E1,3.934867119179E0));
#144=CARTESIAN_POINT('',(-3.018672781318E-1,5.5115E1,4.E0));
#145=CARTESIAN_POINT('',(-5.034582675026E-14,5.5115E1,4.E0));
#147=CARTESIAN_POINT('',(-2.639552242490E-14,5.5115E1,-4.E0));
#148=CARTESIAN_POINT('',(-3.019966002246E-1,5.5115E1,-4.E0));
#149=CARTESIAN_POINT('',(-8.901502564523E-1,5.511018076657E1,-3.934625259E0));
#150=CARTESIAN_POINT('',(-1.759206205816E0,5.508894718461E1,-3.629993721196E0));
#151=CARTESIAN_POINT('',(-2.511245147242E0,5.505924838083E1,-3.156590441036E0));
#152=CARTESIAN_POINT('',(-3.160329442015E0,5.502529563573E1,-2.506993197624E0));
#153=CARTESIAN_POINT('',(-3.633618492342E0,5.499552538799E1,-1.751279165836E0));
#154=CARTESIAN_POINT('',(-3.934558606020E0,5.497449140428E1,
-8.884044878530E-1));
#155=CARTESIAN_POINT('',(-4.000000004657E0,5.496965731101E1,
-3.014090524399E-1));
#156=CARTESIAN_POINT('',(-4.000000004657E0,5.496965731101E1,1.609478331440E-8));
#158=CARTESIAN_POINT('',(0.E0,0.E0,-5.69E1));
#159=DIRECTION('',(0.E0,0.E0,-1.E0));
#160=DIRECTION('',(0.E0,-1.E0,0.E0));
#161=AXIS2_PLACEMENT_3D('',#158,#159,#160);
#163=CARTESIAN_POINT('',(0.E0,0.E0,-5.75E1));
#164=DIRECTION('',(0.E0,0.E0,-1.E0));
#165=DIRECTION('',(0.E0,-1.E0,0.E0));
#166=AXIS2_PLACEMENT_3D('',#163,#164,#165);
#168=DIRECTION('',(0.E0,7.071067811865E-1,7.071067811865E-1));
#169=VECTOR('',#168,8.485281374239E-1);
#170=CARTESIAN_POINT('',(0.E0,-5.5715E1,-5.75E1));
#171=LINE('',#170,#169);
#172=CARTESIAN_POINT('',(0.E0,0.E0,-5.75E1));
#173=DIRECTION('',(0.E0,0.E0,1.E0));
#174=DIRECTION('',(0.E0,-1.E0,0.E0));
#175=AXIS2_PLACEMENT_3D('',#172,#173,#174);
#177=DIRECTION('',(0.E0,-7.071067811865E-1,7.071067811865E-1));
#178=VECTOR('',#177,8.485281374239E-1);
#179=CARTESIAN_POINT('',(0.E0,5.5715E1,-5.75E1));
#180=LINE('',#179,#178);
#181=CARTESIAN_POINT('',(0.E0,0.E0,-5.75E1));
#182=DIRECTION('',(0.E0,0.E0,-1.E0));
#183=DIRECTION('',(0.E0,-1.E0,0.E0));
#184=AXIS2_PLACEMENT_3D('',#181,#182,#183);
#186=CARTESIAN_POINT('',(0.E0,0.E0,-5.75E1));
#187=DIRECTION('',(0.E0,0.E0,1.E0));
#188=DIRECTION('',(0.E0,-1.E0,0.E0));
#189=AXIS2_PLACEMENT_3D('',#186,#187,#188);
#191=CARTESIAN_POINT('',(0.E0,0.E0,-5.63E1));
#192=DIRECTION('',(0.E0,0.E0,-1.E0));
#193=DIRECTION('',(0.E0,-1.E0,0.E0));
#194=AXIS2_PLACEMENT_3D('',#191,#192,#193);
#196=DIRECTION('',(0.E0,3.420201433257E-1,-9.396926207859E-1));
#197=VECTOR('',#196,1.277013326971E0);
#198=CARTESIAN_POINT('',(0.E0,-5.75E1,-5.63E1));
#199=LINE('',#198,#197);
#200=CARTESIAN_POINT('',(0.E0,0.E0,-5.63E1));
#201=DIRECTION('',(0.E0,0.E0,1.E0));
#202=DIRECTION('',(0.E0,-1.E0,0.E0));
#203=AXIS2_PLACEMENT_3D('',#200,#201,#202);
#205=DIRECTION('',(0.E0,-3.420201433257E-1,-9.396926207859E-1));
#206=VECTOR('',#205,1.277013326971E0);
#207=CARTESIAN_POINT('',(-1.276756478319E-14,5.75E1,-5.63E1));
#208=LINE('',#207,#206);
#209=DIRECTION('',(0.E0,-3.420201433257E-1,-9.396926207859E-1));
#210=VECTOR('',#209,1.277013326971E0);
#211=CARTESIAN_POINT('',(0.E0,-5.706323571888E1,5.75E1));
#212=LINE('',#211,#210);
#213=CARTESIAN_POINT('',(0.E0,0.E0,5.75E1));
#214=DIRECTION('',(0.E0,0.E0,1.E0));
#215=DIRECTION('',(0.E0,-1.E0,0.E0));
#216=AXIS2_PLACEMENT_3D('',#213,#214,#215);
#218=DIRECTION('',(0.E0,3.420201433257E-1,-9.396926207859E-1));
#219=VECTOR('',#218,1.277013326971E0);
#220=CARTESIAN_POINT('',(0.E0,5.706323571888E1,5.75E1));
#221=LINE('',#220,#219);
#222=CARTESIAN_POINT('',(0.E0,0.E0,5.75E1));
#223=DIRECTION('',(0.E0,0.E0,-1.E0));
#224=DIRECTION('',(0.E0,-1.E0,0.E0));
#225=AXIS2_PLACEMENT_3D('',#222,#223,#224);
#227=CARTESIAN_POINT('',(0.E0,0.E0,5.75E1));
#228=DIRECTION('',(0.E0,0.E0,-1.E0));
#229=DIRECTION('',(0.E0,-1.E0,0.E0));
#230=AXIS2_PLACEMENT_3D('',#227,#228,#229);
#232=CARTESIAN_POINT('',(0.E0,0.E0,5.75E1));
#233=DIRECTION('',(0.E0,0.E0,1.E0));
#234=DIRECTION('',(0.E0,-1.E0,0.E0));
#235=AXIS2_PLACEMENT_3D('',#232,#233,#234);
#237=CARTESIAN_POINT('',(0.E0,-5.5115E1,5.69E1));
#238=CARTESIAN_POINT('',(0.E0,-5.5715E1,5.75E1));
#239=VERTEX_POINT('',#237);
#240=VERTEX_POINT('',#238);
#241=CARTESIAN_POINT('',(0.E0,-5.706323571888E1,5.75E1));
#242=CARTESIAN_POINT('',(0.E0,-5.75E1,5.63E1));
#243=VERTEX_POINT('',#241);
#244=VERTEX_POINT('',#242);
#245=CARTESIAN_POINT('',(0.E0,-5.75E1,-5.63E1));
#246=VERTEX_POINT('',#245);
#247=CARTESIAN_POINT('',(0.E0,-5.706323571888E1,-5.75E1));
#248=VERTEX_POINT('',#247);
#249=CARTESIAN_POINT('',(0.E0,-5.5715E1,-5.75E1));
#250=CARTESIAN_POINT('',(0.E0,-5.5115E1,-5.69E1));
#251=VERTEX_POINT('',#249);
#252=VERTEX_POINT('',#250);
#253=CARTESIAN_POINT('',(-1.223798840044E-14,5.5115E1,5.69E1));
#254=CARTESIAN_POINT('',(0.E0,5.5715E1,5.75E1));
#255=VERTEX_POINT('',#253);
#256=VERTEX_POINT('',#254);
#257=CARTESIAN_POINT('',(0.E0,5.706323571888E1,5.75E1));
#258=CARTESIAN_POINT('',(-1.276756478319E-14,5.75E1,5.63E1));
#259=VERTEX_POINT('',#257);
#260=VERTEX_POINT('',#258);
#261=CARTESIAN_POINT('',(-1.276756478319E-14,5.75E1,-5.63E1));
#262=CARTESIAN_POINT('',(0.E0,5.706323571888E1,-5.75E1));
#263=VERTEX_POINT('',#261);
#264=VERTEX_POINT('',#262);
#265=CARTESIAN_POINT('',(0.E0,5.5715E1,-5.75E1));
#266=CARTESIAN_POINT('',(-1.223798840044E-14,5.5115E1,-5.69E1));
#267=VERTEX_POINT('',#265);
#268=VERTEX_POINT('',#266);
#269=VERTEX_POINT('',#64);
#270=VERTEX_POINT('',#73);
#271=VERTEX_POINT('',#89);
#272=VERTEX_POINT('',#136);
#273=VERTEX_POINT('',#145);
#274=VERTEX_POINT('',#147);
#275=VERTEX_POINT('',#91);
#276=VERTEX_POINT('',#28);
#277=CARTESIAN_POINT('',(0.E0,0.E0,5.72E1));
#278=DIRECTION('',(0.E0,0.E0,1.E0));
#279=DIRECTION('',(0.E0,1.E0,0.E0));
#280=AXIS2_PLACEMENT_3D('',#277,#278,#279);
#281=CONICAL_SURFACE('',#280,5.5415E1,4.5E1);
#283=ORIENTED_EDGE('',*,*,#282,.T.);
#285=ORIENTED_EDGE('',*,*,#284,.T.);
#287=ORIENTED_EDGE('',*,*,#286,.F.);
#289=ORIENTED_EDGE('',*,*,#288,.F.);
#290=EDGE_LOOP('',(#283,#285,#287,#289));
#291=FACE_OUTER_BOUND('',#290,.F.);
#292=ADVANCED_FACE('',(#291),#281,.F.);
#293=CARTESIAN_POINT('',(0.E0,0.E0,5.72E1));
#294=DIRECTION('',(0.E0,0.E0,1.E0));
#295=DIRECTION('',(0.E0,1.E0,0.E0));
#296=AXIS2_PLACEMENT_3D('',#293,#294,#295);
#297=CONICAL_SURFACE('',#296,5.5415E1,4.5E1);
#298=ORIENTED_EDGE('',*,*,#282,.F.);
#300=ORIENTED_EDGE('',*,*,#299,.T.);
#301=ORIENTED_EDGE('',*,*,#286,.T.);
#303=ORIENTED_EDGE('',*,*,#302,.F.);
#304=EDGE_LOOP('',(#298,#300,#301,#303));
#305=FACE_OUTER_BOUND('',#304,.F.);
#306=ADVANCED_FACE('',(#305),#297,.F.);
#307=CARTESIAN_POINT('',(0.E0,0.E0,6.325E1));
#308=DIRECTION('',(0.E0,0.E0,-1.E0));
#309=DIRECTION('',(0.E0,-1.E0,0.E0));
#310=AXIS2_PLACEMENT_3D('',#307,#308,#309);
#311=CYLINDRICAL_SURFACE('',#310,5.5115E1);
#313=ORIENTED_EDGE('',*,*,#312,.F.);
#315=ORIENTED_EDGE('',*,*,#314,.T.);
#316=ORIENTED_EDGE('',*,*,#299,.F.);
#318=ORIENTED_EDGE('',*,*,#317,.F.);
#320=ORIENTED_EDGE('',*,*,#319,.T.);
#322=ORIENTED_EDGE('',*,*,#321,.T.);
#324=ORIENTED_EDGE('',*,*,#323,.F.);
#325=EDGE_LOOP('',(#313,#315,#316,#318,#320,#322,#324));
#326=FACE_OUTER_BOUND('',#325,.F.);
#327=ADVANCED_FACE('',(#326),#311,.F.);
#328=CARTESIAN_POINT('',(0.E0,5.75E1,0.E0));
#329=DIRECTION('',(0.E0,-1.E0,0.E0));
#330=DIRECTION('',(1.E0,0.E0,0.E0));
#331=AXIS2_PLACEMENT_3D('',#328,#329,#330);
#332=CYLINDRICAL_SURFACE('',#331,4.E0);
#334=ORIENTED_EDGE('',*,*,#333,.T.);
#336=ORIENTED_EDGE('',*,*,#335,.T.);
#338=ORIENTED_EDGE('',*,*,#337,.T.);
#339=ORIENTED_EDGE('',*,*,#312,.T.);
#341=ORIENTED_EDGE('',*,*,#340,.F.);
#343=ORIENTED_EDGE('',*,*,#342,.T.);
#344=EDGE_LOOP('',(#334,#336,#338,#339,#341,#343));
#345=FACE_OUTER_BOUND('',#344,.F.);
#346=ADVANCED_FACE('',(#345),#332,.F.);
#347=CARTESIAN_POINT('',(0.E0,0.E0,6.325E1));
#348=DIRECTION('',(0.E0,0.E0,-1.E0));
#349=DIRECTION('',(0.E0,-1.E0,0.E0));
#350=AXIS2_PLACEMENT_3D('',#347,#348,#349);
#351=CYLINDRICAL_SURFACE('',#350,5.75E1);
#352=ORIENTED_EDGE('',*,*,#333,.F.);
#354=ORIENTED_EDGE('',*,*,#353,.F.);
#356=ORIENTED_EDGE('',*,*,#355,.F.);
#358=ORIENTED_EDGE('',*,*,#357,.T.);
#360=ORIENTED_EDGE('',*,*,#359,.T.);
#362=ORIENTED_EDGE('',*,*,#361,.F.);
#364=ORIENTED_EDGE('',*,*,#363,.F.);
#365=EDGE_LOOP('',(#352,#354,#356,#358,#360,#362,#364));
#366=FACE_OUTER_BOUND('',#365,.F.);
#367=ADVANCED_FACE('',(#366),#351,.T.);
#368=CARTESIAN_POINT('',(0.E0,0.E0,6.325E1));
#369=DIRECTION('',(0.E0,0.E0,-1.E0));
#370=DIRECTION('',(0.E0,-1.E0,0.E0));
#371=AXIS2_PLACEMENT_3D('',#368,#369,#370);
#372=CYLINDRICAL_SURFACE('',#371,5.75E1);
#373=ORIENTED_EDGE('',*,*,#342,.F.);
#375=ORIENTED_EDGE('',*,*,#374,.F.);
#376=ORIENTED_EDGE('',*,*,#361,.T.);
#378=ORIENTED_EDGE('',*,*,#377,.F.);
#379=ORIENTED_EDGE('',*,*,#357,.F.);
#381=ORIENTED_EDGE('',*,*,#380,.T.);
#382=ORIENTED_EDGE('',*,*,#353,.T.);
#383=EDGE_LOOP('',(#373,#375,#376,#378,#379,#381,#382));
#384=FACE_OUTER_BOUND('',#383,.F.);
#385=ADVANCED_FACE('',(#384),#372,.T.);
#386=CARTESIAN_POINT('',(0.E0,5.75E1,0.E0));
#387=DIRECTION('',(0.E0,-1.E0,0.E0));
#388=DIRECTION('',(1.E0,0.E0,0.E0));
#389=AXIS2_PLACEMENT_3D('',#386,#387,#388);
#390=CYLINDRICAL_SURFACE('',#389,4.E0);
#391=ORIENTED_EDGE('',*,*,#363,.T.);
#392=ORIENTED_EDGE('',*,*,#374,.T.);
#393=ORIENTED_EDGE('',*,*,#340,.T.);
#394=ORIENTED_EDGE('',*,*,#323,.T.);
#396=ORIENTED_EDGE('',*,*,#395,.T.);
#397=ORIENTED_EDGE('',*,*,#335,.F.);
#398=EDGE_LOOP('',(#391,#392,#393,#394,#396,#397));
#399=FACE_OUTER_BOUND('',#398,.F.);
#400=ADVANCED_FACE('',(#399),#390,.F.);
#401=CARTESIAN_POINT('',(0.E0,0.E0,6.325E1));
#402=DIRECTION('',(0.E0,0.E0,-1.E0));
#403=DIRECTION('',(0.E0,-1.E0,0.E0));
#404=AXIS2_PLACEMENT_3D('',#401,#402,#403);
#405=CYLINDRICAL_SURFACE('',#404,5.5115E1);
#406=ORIENTED_EDGE('',*,*,#337,.F.);
#407=ORIENTED_EDGE('',*,*,#395,.F.);
#408=ORIENTED_EDGE('',*,*,#321,.F.);
#410=ORIENTED_EDGE('',*,*,#409,.F.);
#411=ORIENTED_EDGE('',*,*,#317,.T.);
#412=ORIENTED_EDGE('',*,*,#288,.T.);
#413=ORIENTED_EDGE('',*,*,#314,.F.);
#414=EDGE_LOOP('',(#406,#407,#408,#410,#411,#412,#413));
#415=FACE_OUTER_BOUND('',#414,.F.);
#416=ADVANCED_FACE('',(#415),#405,.F.);
#417=CARTESIAN_POINT('',(0.E0,0.E0,-5.72E1));
#418=DIRECTION('',(0.E0,0.E0,-1.E0));
#419=DIRECTION('',(0.E0,-1.E0,0.E0));
#420=AXIS2_PLACEMENT_3D('',#417,#418,#419);
#421=CONICAL_SURFACE('',#420,5.5415E1,4.5E1);
#423=ORIENTED_EDGE('',*,*,#422,.T.);
#424=ORIENTED_EDGE('',*,*,#409,.T.);
#426=ORIENTED_EDGE('',*,*,#425,.F.);
#428=ORIENTED_EDGE('',*,*,#427,.F.);
#429=EDGE_LOOP('',(#423,#424,#426,#428));
#430=FACE_OUTER_BOUND('',#429,.F.);
#431=ADVANCED_FACE('',(#430),#421,.F.);
#432=CARTESIAN_POINT('',(0.E0,0.E0,-5.72E1));
#433=DIRECTION('',(0.E0,0.E0,-1.E0));
#434=DIRECTION('',(0.E0,-1.E0,0.E0));
#435=AXIS2_PLACEMENT_3D('',#432,#433,#434);
#436=CONICAL_SURFACE('',#435,5.5415E1,4.5E1);
#437=ORIENTED_EDGE('',*,*,#422,.F.);
#439=ORIENTED_EDGE('',*,*,#438,.T.);
#440=ORIENTED_EDGE('',*,*,#425,.T.);
#441=ORIENTED_EDGE('',*,*,#319,.F.);
#442=EDGE_LOOP('',(#437,#439,#440,#441));
#443=FACE_OUTER_BOUND('',#442,.F.);
#444=ADVANCED_FACE('',(#443),#436,.F.);
#445=CARTESIAN_POINT('',(0.E0,0.E0,-5.75E1));
#446=DIRECTION('',(0.E0,0.E0,-1.E0));
#447=DIRECTION('',(0.E0,-1.E0,0.E0));
#448=AXIS2_PLACEMENT_3D('',#445,#446,#447);
#449=PLANE('',#448);
#451=ORIENTED_EDGE('',*,*,#450,.F.);
#453=ORIENTED_EDGE('',*,*,#452,.T.);
#454=EDGE_LOOP('',(#451,#453));
#455=FACE_OUTER_BOUND('',#454,.F.);
#456=ORIENTED_EDGE('',*,*,#438,.F.);
#457=ORIENTED_EDGE('',*,*,#427,.T.);
#458=EDGE_LOOP('',(#456,#457));
#459=FACE_BOUND('',#458,.F.);
#460=ADVANCED_FACE('',(#455,#459),#449,.T.);
#461=CARTESIAN_POINT('',(0.E0,0.E0,-5.69E1));
#462=DIRECTION('',(0.E0,0.E0,1.E0));
#463=DIRECTION('',(0.E0,1.E0,0.E0));
#464=AXIS2_PLACEMENT_3D('',#461,#462,#463);
#465=CONICAL_SURFACE('',#464,5.728161785944E1,2.E1);
#467=ORIENTED_EDGE('',*,*,#466,.T.);
#468=ORIENTED_EDGE('',*,*,#450,.T.);
#470=ORIENTED_EDGE('',*,*,#469,.F.);
#471=ORIENTED_EDGE('',*,*,#359,.F.);
#472=EDGE_LOOP('',(#467,#468,#470,#471));
#473=FACE_OUTER_BOUND('',#472,.F.);
#474=ADVANCED_FACE('',(#473),#465,.T.);
#475=CARTESIAN_POINT('',(0.E0,0.E0,-5.69E1));
#476=DIRECTION('',(0.E0,0.E0,1.E0));
#477=DIRECTION('',(0.E0,1.E0,0.E0));
#478=AXIS2_PLACEMENT_3D('',#475,#476,#477);
#479=CONICAL_SURFACE('',#478,5.728161785944E1,2.E1);
#480=ORIENTED_EDGE('',*,*,#466,.F.);
#481=ORIENTED_EDGE('',*,*,#377,.T.);
#482=ORIENTED_EDGE('',*,*,#469,.T.);
#483=ORIENTED_EDGE('',*,*,#452,.F.);
#484=EDGE_LOOP('',(#480,#481,#482,#483));
#485=FACE_OUTER_BOUND('',#484,.F.);
#486=ADVANCED_FACE('',(#485),#479,.T.);
#487=CARTESIAN_POINT('',(0.E0,0.E0,5.69E1));
#488=DIRECTION('',(0.E0,0.E0,-1.E0));
#489=DIRECTION('',(0.E0,-1.E0,0.E0));
#490=AXIS2_PLACEMENT_3D('',#487,#488,#489);
#491=CONICAL_SURFACE('',#490,5.728161785944E1,2.E1);
#493=ORIENTED_EDGE('',*,*,#492,.F.);
#495=ORIENTED_EDGE('',*,*,#494,.T.);
#497=ORIENTED_EDGE('',*,*,#496,.T.);
#498=ORIENTED_EDGE('',*,*,#380,.F.);
#499=EDGE_LOOP('',(#493,#495,#497,#498));
#500=FACE_OUTER_BOUND('',#499,.F.);
#501=ADVANCED_FACE('',(#500),#491,.T.);
#502=CARTESIAN_POINT('',(0.E0,0.E0,5.69E1));
#503=DIRECTION('',(0.E0,0.E0,-1.E0));
#504=DIRECTION('',(0.E0,-1.E0,0.E0));
#505=AXIS2_PLACEMENT_3D('',#502,#503,#504);
#506=CONICAL_SURFACE('',#505,5.728161785944E1,2.E1);
#507=ORIENTED_EDGE('',*,*,#492,.T.);
#508=ORIENTED_EDGE('',*,*,#355,.T.);
#509=ORIENTED_EDGE('',*,*,#496,.F.);
#511=ORIENTED_EDGE('',*,*,#510,.F.);
#512=EDGE_LOOP('',(#507,#508,#509,#511));
#513=FACE_OUTER_BOUND('',#512,.F.);
#514=ADVANCED_FACE('',(#513),#506,.T.);
#515=CARTESIAN_POINT('',(0.E0,0.E0,5.75E1));
#516=DIRECTION('',(0.E0,0.E0,-1.E0));
#517=DIRECTION('',(0.E0,-1.E0,0.E0));
#518=AXIS2_PLACEMENT_3D('',#515,#516,#517);
#519=PLANE('',#518);
#520=ORIENTED_EDGE('',*,*,#494,.F.);
#521=ORIENTED_EDGE('',*,*,#510,.T.);
#522=EDGE_LOOP('',(#520,#521));
#523=FACE_OUTER_BOUND('',#522,.F.);
#524=ORIENTED_EDGE('',*,*,#284,.F.);
#525=ORIENTED_EDGE('',*,*,#302,.T.);
#526=EDGE_LOOP('',(#524,#525));
#527=FACE_BOUND('',#526,.F.);
#528=ADVANCED_FACE('',(#523,#527),#519,.F.);
#529=CLOSED_SHELL('',(#292,#306,#327,#346,#367,#385,#400,#416,#431,#444,#460,
#474,#486,#501,#514,#528));
#530=MANIFOLD_SOLID_BREP('',#529);
#532=DIMENSIONAL_EXPONENTS(0.E0,0.E0,0.E0,0.E0,0.E0,0.E0,0.E0);
#534=PLANE_ANGLE_MEASURE_WITH_UNIT(PLANE_ANGLE_MEASURE(1.745329251994E-2),#533);
#535=(CONVERSION_BASED_UNIT('DEGREE',#534)NAMED_UNIT(*)PLANE_ANGLE_UNIT());
#537=UNCERTAINTY_MEASURE_WITH_UNIT(LENGTH_MEASURE(1.991778754367E-2),#531,
'closure',
'Maximum model space distance between geometric entities at asserted connectivities');
#538=(GEOMETRIC_REPRESENTATION_CONTEXT(3)GLOBAL_UNCERTAINTY_ASSIGNED_CONTEXT((
#537))GLOBAL_UNIT_ASSIGNED_CONTEXT((#531,#535,#536))REPRESENTATION_CONTEXT
('ID1','3'));
#540=APPLICATION_CONTEXT(
'CONFIGURATION CONTROLLED 3D DESIGNS OF MECHANICAL PARTS AND ASSEMBLIES');
#541=APPLICATION_PROTOCOL_DEFINITION('international standard',
'config_control_design',1994,#540);
#542=DESIGN_CONTEXT('',#540,'design');
#543=MECHANICAL_CONTEXT('',#540,'mechanical');
#544=PRODUCT('PG__A_2016_10_21','PG__A_2016_10_21','NOT SPECIFIED',(#543));
#545=PRODUCT_DEFINITION_FORMATION_WITH_SPECIFIED_SOURCE('1','LAST_VERSION',#544,
.MADE.);
#549=PRODUCT_CATEGORY('part','');
#550=PRODUCT_RELATED_PRODUCT_CATEGORY('detail','',(#544));
#551=PRODUCT_CATEGORY_RELATIONSHIP('','',#549,#550);
#552=SECURITY_CLASSIFICATION_LEVEL('unclassified');
#553=SECURITY_CLASSIFICATION('','',#552);
#554=CC_DESIGN_SECURITY_CLASSIFICATION(#553,(#545));
#555=APPROVAL_STATUS('approved');
#556=APPROVAL(#555,'');
#557=CC_DESIGN_APPROVAL(#556,(#553,#545,#546));
#558=CALENDAR_DATE(116,8,8);
#559=COORDINATED_UNIVERSAL_TIME_OFFSET(2,0,.AHEAD.);
#560=LOCAL_TIME(11,11,1.8E1,#559);
#561=DATE_AND_TIME(#558,#560);
#562=APPROVAL_DATE_TIME(#561,#556);
#563=DATE_TIME_ROLE('creation_date');
#564=CC_DESIGN_DATE_AND_TIME_ASSIGNMENT(#561,#563,(#546));
#565=DATE_TIME_ROLE('classification_date');
#566=CC_DESIGN_DATE_AND_TIME_ASSIGNMENT(#561,#565,(#553));
#567=PERSON('UNSPECIFIED','UNSPECIFIED',$,$,$,$);
#568=ORGANIZATION('UNSPECIFIED','UNSPECIFIED','UNSPECIFIED');
#569=PERSON_AND_ORGANIZATION(#567,#568);
#570=APPROVAL_ROLE('approver');
#571=APPROVAL_PERSON_ORGANIZATION(#569,#556,#570);
#572=PERSON_AND_ORGANIZATION_ROLE('creator');
#573=CC_DESIGN_PERSON_AND_ORGANIZATION_ASSIGNMENT(#569,#572,(#545,#546));
#574=PERSON_AND_ORGANIZATION_ROLE('design_supplier');
#575=CC_DESIGN_PERSON_AND_ORGANIZATION_ASSIGNMENT(#569,#574,(#545));
#576=PERSON_AND_ORGANIZATION_ROLE('classification_officer');
#577=CC_DESIGN_PERSON_AND_ORGANIZATION_ASSIGNMENT(#569,#576,(#553));
#578=PERSON_AND_ORGANIZATION_ROLE('design_owner');
#579=CC_DESIGN_PERSON_AND_ORGANIZATION_ASSIGNMENT(#569,#578,(#544));
#5=CIRCLE('',#4,5.5115E1);
#14=CIRCLE('',#13,5.5115E1);
#29=B_SPLINE_CURVE_WITH_KNOTS('',3,(#19,#20,#21,#22,#23,#24,#25,#26,#27,#28),
.UNSPECIFIED.,.F.,.F.,(4,1,1,1,1,1,1,4),(0.E0,1.428571428571E-1,
2.857142857143E-1,4.285714285714E-1,5.714285714286E-1,7.142857142857E-1,
8.571428571429E-1,1.E0),.UNSPECIFIED.);
#42=CIRCLE('',#41,5.5115E1);
#59=B_SPLINE_CURVE_WITH_KNOTS('',3,(#47,#48,#49,#50,#51,#52,#53,#54,#55,#56,#57,
#58),.UNSPECIFIED.,.F.,.F.,(4,1,1,1,1,1,1,1,1,4),(0.E0,1.111111111111E-1,
2.222222222222E-1,3.333333333333E-1,4.444444444444E-1,5.555555555556E-1,
6.666666666667E-1,7.777777777778E-1,8.888888888889E-1,1.E0),.UNSPECIFIED.);
#74=B_SPLINE_CURVE_WITH_KNOTS('',3,(#64,#65,#66,#67,#68,#69,#70,#71,#72,#73),
.UNSPECIFIED.,.F.,.F.,(4,1,1,1,1,1,1,4),(0.E0,1.428571428571E-1,
2.857142857143E-1,4.285714285714E-1,5.714285714286E-1,7.142857142857E-1,
8.571428571429E-1,1.E0),.UNSPECIFIED.);
#79=CIRCLE('',#78,5.75E1);
#90=B_SPLINE_CURVE_WITH_KNOTS('',3,(#80,#81,#82,#83,#84,#85,#86,#87,#88,#89),
.UNSPECIFIED.,.F.,.F.,(4,1,1,1,1,1,1,4),(0.E0,1.428571428571E-1,
2.857142857143E-1,4.285714285714E-1,5.714285714286E-1,7.142857142857E-1,
8.571428571429E-1,1.E0),.UNSPECIFIED.);
#101=B_SPLINE_CURVE_WITH_KNOTS('',3,(#91,#92,#93,#94,#95,#96,#97,#98,#99,#100),
.UNSPECIFIED.,.F.,.F.,(4,1,1,1,1,1,1,4),(0.E0,1.428571428571E-1,
2.857142857143E-1,4.285714285714E-1,5.714285714286E-1,7.142857142857E-1,
8.571428571429E-1,1.E0),.UNSPECIFIED.);
#114=B_SPLINE_CURVE_WITH_KNOTS('',3,(#102,#103,#104,#105,#106,#107,#108,#109,
#110,#111,#112,#113),.UNSPECIFIED.,.F.,.F.,(4,1,1,1,1,1,1,1,1,4),(0.E0,
1.111111111111E-1,2.222222222222E-1,3.333333333333E-1,4.444444444444E-1,
5.555555555556E-1,6.666666666667E-1,7.777777777778E-1,8.888888888889E-1,1.E0),
.UNSPECIFIED.);
#127=CIRCLE('',#126,5.75E1);
#146=B_SPLINE_CURVE_WITH_KNOTS('',3,(#136,#137,#138,#139,#140,#141,#142,#143,
#144,#145),.UNSPECIFIED.,.F.,.F.,(4,1,1,1,1,1,1,4),(0.E0,1.428571428571E-1,
2.857142857143E-1,4.285714285714E-1,5.714285714286E-1,7.142857142857E-1,
8.571428571429E-1,1.E0),.UNSPECIFIED.);
#157=B_SPLINE_CURVE_WITH_KNOTS('',3,(#147,#148,#149,#150,#151,#152,#153,#154,
#155,#156),.UNSPECIFIED.,.F.,.F.,(4,1,1,1,1,1,1,4),(0.E0,1.428571428571E-1,
2.857142857143E-1,4.285714285714E-1,5.714285714286E-1,7.142857142857E-1,
8.571428571429E-1,1.E0),.UNSPECIFIED.);
#162=CIRCLE('',#161,5.5115E1);
#167=CIRCLE('',#166,5.5715E1);
#176=CIRCLE('',#175,5.5715E1);
#185=CIRCLE('',#184,5.706323571888E1);
#190=CIRCLE('',#189,5.706323571888E1);
#195=CIRCLE('',#194,5.75E1);
#204=CIRCLE('',#203,5.75E1);
#217=CIRCLE('',#216,5.706323571888E1);
#226=CIRCLE('',#225,5.706323571888E1);
#231=CIRCLE('',#230,5.5715E1);
#236=CIRCLE('',#235,5.5715E1);
#282=EDGE_CURVE('',#239,#240,#9,.T.);
#284=EDGE_CURVE('',#240,#256,#231,.T.);
#286=EDGE_CURVE('',#255,#256,#18,.T.);
#288=EDGE_CURVE('',#239,#255,#5,.T.);
#299=EDGE_CURVE('',#239,#255,#14,.T.);
#302=EDGE_CURVE('',#240,#256,#236,.T.);
#312=EDGE_CURVE('',#273,#276,#29,.T.);
#314=EDGE_CURVE('',#273,#255,#33,.T.);
#317=EDGE_CURVE('',#252,#239,#37,.T.);
#319=EDGE_CURVE('',#252,#268,#42,.T.);
#321=EDGE_CURVE('',#268,#274,#46,.T.);
#323=EDGE_CURVE('',#276,#274,#59,.T.);
#333=EDGE_CURVE('',#269,#270,#74,.T.);
#335=EDGE_CURVE('',#270,#272,#135,.T.);
#337=EDGE_CURVE('',#272,#273,#146,.T.);
#340=EDGE_CURVE('',#275,#276,#63,.T.);
#342=EDGE_CURVE('',#275,#269,#101,.T.);
#353=EDGE_CURVE('',#260,#269,#131,.T.);
#355=EDGE_CURVE('',#244,#260,#79,.T.);
#357=EDGE_CURVE('',#244,#246,#122,.T.);
#359=EDGE_CURVE('',#246,#263,#195,.T.);
#361=EDGE_CURVE('',#271,#263,#118,.T.);
#363=EDGE_CURVE('',#270,#271,#90,.T.);
#374=EDGE_CURVE('',#271,#275,#114,.T.);
#377=EDGE_CURVE('',#246,#263,#204,.T.);
#380=EDGE_CURVE('',#244,#260,#127,.T.);
#395=EDGE_CURVE('',#274,#272,#157,.T.);
#409=EDGE_CURVE('',#252,#268,#162,.T.);
#422=EDGE_CURVE('',#251,#252,#171,.T.);
#425=EDGE_CURVE('',#267,#268,#180,.T.);
#427=EDGE_CURVE('',#251,#267,#167,.T.);
#438=EDGE_CURVE('',#251,#267,#176,.T.);
#450=EDGE_CURVE('',#248,#264,#185,.T.);
#452=EDGE_CURVE('',#248,#264,#190,.T.);
#466=EDGE_CURVE('',#246,#248,#199,.T.);
#469=EDGE_CURVE('',#263,#264,#208,.T.);
#492=EDGE_CURVE('',#243,#244,#212,.T.);
#494=EDGE_CURVE('',#243,#259,#217,.T.);
#496=EDGE_CURVE('',#259,#260,#221,.T.);
#510=EDGE_CURVE('',#243,#259,#226,.T.);
#531=(LENGTH_UNIT()NAMED_UNIT(*)SI_UNIT(.MILLI.,.METRE.));
#533=(NAMED_UNIT(*)PLANE_ANGLE_UNIT()SI_UNIT($,.RADIAN.));
#536=(NAMED_UNIT(*)SI_UNIT($,.STERADIAN.)SOLID_ANGLE_UNIT());
#539=ADVANCED_BREP_SHAPE_REPRESENTATION('',(#530),#538);
#546=PRODUCT_DEFINITION('design','',#545,#542);
#547=PRODUCT_DEFINITION_SHAPE('','SHAPE FOR PG__A_2016_10_21.',#546);
#548=SHAPE_DEFINITION_REPRESENTATION(#547,#539);
ENDSEC;
END-ISO-10303-21;
