ISO-10303-21;
HEADER;
FILE_DESCRIPTION((''),'2;1');
FILE_NAME('PG__A_2016_10_21','2016-08-05T',('deusss58'),(''),
'PRO/ENGINEER BY PARAMETRIC TECHNOLOGY CORPORATION, 2014430',
'PRO/ENGINEER BY PARAMETRIC TECHNOLOGY CORPORATION, 2014430','');
FILE_SCHEMA(('CONFIG_CONTROL_DESIGN'));
ENDSEC;
DATA;
#1=CARTESIAN_POINT('',(0.E0,0.E0,5.65E0));
#2=DIRECTION('',(0.E0,0.E0,-1.E0));
#3=DIRECTION('',(0.E0,-1.E0,0.E0));
#4=AXIS2_PLACEMENT_3D('',#1,#2,#3);
#6=DIRECTION('',(0.E0,-7.071067811865E-1,7.071067811865E-1));
#7=VECTOR('',#6,4.949747468306E-1);
#8=CARTESIAN_POINT('',(0.E0,-6.045E0,5.65E0));
#9=LINE('',#8,#7);
#10=CARTESIAN_POINT('',(0.E0,0.E0,5.65E0));
#11=DIRECTION('',(0.E0,0.E0,1.E0));
#12=DIRECTION('',(0.E0,-1.E0,0.E0));
#13=AXIS2_PLACEMENT_3D('',#10,#11,#12);
#15=DIRECTION('',(0.E0,7.071067811865E-1,7.071067811865E-1));
#16=VECTOR('',#15,4.949747468306E-1);
#17=CARTESIAN_POINT('',(0.E0,6.045E0,5.65E0));
#18=LINE('',#17,#16);
#19=CARTESIAN_POINT('',(0.E0,6.045E0,1.5E0));
#20=CARTESIAN_POINT('',(9.772119782101E-2,6.045E0,1.5E0));
#21=CARTESIAN_POINT('',(2.903323502018E-1,6.040384017588E0,1.481589243528E0));
#22=CARTESIAN_POINT('',(5.802687416688E-1,6.019250050857E0,1.394041433675E0));
#23=CARTESIAN_POINT('',(8.401462718911E-1,5.988012575360E0,1.254090654595E0));
#24=CARTESIAN_POINT('',(1.067662529706E0,5.951222720034E0,1.067213475089E0));
#25=CARTESIAN_POINT('',(1.254468075674E0,5.914186992660E0,8.397127729967E-1));
#26=CARTESIAN_POINT('',(1.394260546843E0,5.882388015384E0,5.791987711116E-1));
#27=CARTESIAN_POINT('',(1.480646916897E0,5.860948212736E0,2.942953846926E-1));
#28=CARTESIAN_POINT('',(1.5E0,5.855939292718E0,9.953783804959E-2));
#29=CARTESIAN_POINT('',(1.5E0,5.855939292718E0,0.E0));
#31=DIRECTION('',(0.E0,0.E0,1.E0));
#32=VECTOR('',#31,4.15E0);
#33=CARTESIAN_POINT('',(0.E0,6.045E0,1.5E0));
#34=LINE('',#33,#32);
#35=DIRECTION('',(0.E0,0.E0,1.E0));
#36=VECTOR('',#35,1.13E1);
#37=CARTESIAN_POINT('',(0.E0,-6.045E0,-5.65E0));
#38=LINE('',#37,#36);
#39=CARTESIAN_POINT('',(0.E0,0.E0,-5.65E0));
#40=DIRECTION('',(0.E0,0.E0,1.E0));
#41=DIRECTION('',(0.E0,-1.E0,0.E0));
#42=AXIS2_PLACEMENT_3D('',#39,#40,#41);
#44=DIRECTION('',(0.E0,0.E0,1.E0));
#45=VECTOR('',#44,4.15E0);
#46=CARTESIAN_POINT('',(0.E0,6.045E0,-5.65E0));
#47=LINE('',#46,#45);
#48=CARTESIAN_POINT('',(1.5E0,5.855939292718E0,0.E0));
#49=CARTESIAN_POINT('',(1.5E0,5.855939292718E0,-8.814489341947E-2));
#50=CARTESIAN_POINT('',(1.484825548066E0,5.859861144097E0,-2.614076699798E-1));
#51=CARTESIAN_POINT('',(1.416060921374E0,5.877033568800E0,-5.174999526532E-1));
#52=CARTESIAN_POINT('',(1.305547129231E0,5.902847527221E0,-7.539550844832E-1));
#53=CARTESIAN_POINT('',(1.154116297575E0,5.934618769830E0,-9.699048024288E-1));
#54=CARTESIAN_POINT('',(9.709063871388E-1,5.967673050501E0,-1.153279056563E0));
#55=CARTESIAN_POINT('',(7.550275388563E-1,5.999112258438E0,-1.304926623003E0));
#56=CARTESIAN_POINT('',(5.177469313905E-1,6.024542130135E0,-1.416176918336E0));
#57=CARTESIAN_POINT('',(2.578495010428E-1,6.041378273460E0,-1.485528511569E0));
#58=CARTESIAN_POINT('',(8.650615075222E-2,6.045E0,-1.5E0));
#59=CARTESIAN_POINT('',(0.E0,6.045E0,-1.5E0));
#61=DIRECTION('',(0.E0,-1.E0,0.E0));
#62=VECTOR('',#61,9.814578728705E-1);
#63=CARTESIAN_POINT('',(1.5E0,6.837397165589E0,0.E0));
#64=LINE('',#63,#62);
#65=CARTESIAN_POINT('',(0.E0,7.E0,1.5E0));
#66=CARTESIAN_POINT('',(-8.630327116458E-2,7.E0,1.5E0));
#67=CARTESIAN_POINT('',(-2.573148142846E-1,6.996888856642E0,1.485606841051E0));
#68=CARTESIAN_POINT('',(-5.172222638093E-1,6.982378463442E0,1.416374456532E0));
#69=CARTESIAN_POINT('',(-7.546353178063E-1,6.960449999025E0,1.305161051318E0));
#70=CARTESIAN_POINT('',(-9.706694679170E-1,6.933360519544E0,1.153492334908E0));
#71=CARTESIAN_POINT('',(-1.154074880690E0,6.904903869565E0,9.699787111587E-1));
#72=CARTESIAN_POINT('',(-1.305657280686E0,6.877588843666E0,7.537944830307E-1));
#73=CARTESIAN_POINT('',(-1.416186489746E0,6.855442927665E0,5.171602892864E-1));
#74=CARTESIAN_POINT('',(-1.484858872467E0,6.840748130690E0,2.611568450654E-1));
#75=CARTESIAN_POINT('',(-1.5E0,6.837397165589E0,8.804153531004E-2));
#76=CARTESIAN_POINT('',(-1.5E0,6.837397165589E0,0.E0));
#78=CARTESIAN_POINT('',(0.E0,0.E0,5.4E0));
#79=DIRECTION('',(0.E0,0.E0,-1.E0));
#80=DIRECTION('',(0.E0,-1.E0,0.E0));
#81=AXIS2_PLACEMENT_3D('',#78,#79,#80);
#83=CARTESIAN_POINT('',(-1.5E0,6.837397165589E0,0.E0));
#84=CARTESIAN_POINT('',(-1.5E0,6.837397165589E0,-9.940720688588E-2));
#85=CARTESIAN_POINT('',(-1.480695828632E0,6.841675428827E0,-2.939795433678E-1));
#86=CARTESIAN_POINT('',(-1.394427491445E0,6.860023781622E0,-5.788021272948E-1));
#87=CARTESIAN_POINT('',(-1.254619234238E0,6.887315114311E0,-8.395240074900E-1));
#88=CARTESIAN_POINT('',(-1.067611616090E0,6.919179072854E0,-1.067288061121E0));
#89=CARTESIAN_POINT('',(-8.399384613615E-1,6.950866185904E0,-1.254241478413E0));
#90=CARTESIAN_POINT('',(-5.798698481460E-1,6.977806955116E0,-1.394221441610E0));
#91=CARTESIAN_POINT('',(-2.898306401018E-1,6.996031666269E0,-1.481675220401E0));
#92=CARTESIAN_POINT('',(-9.753244474302E-2,7.E0,-1.5E0));
#93=CARTESIAN_POINT('',(0.E0,7.E0,-1.5E0));
#95=CARTESIAN_POINT('',(1.5E0,6.837397165589E0,0.E0));
#96=CARTESIAN_POINT('',(1.5E0,6.837397165589E0,9.941520015671E-2));
#97=CARTESIAN_POINT('',(1.480691030174E0,6.841676431779E0,2.939999508211E-1));
#98=CARTESIAN_POINT('',(1.394427096127E0,6.860023966509E0,5.788050760880E-1));
#99=CARTESIAN_POINT('',(1.254601640742E0,6.887318212575E0,8.395495910988E-1));
#100=CARTESIAN_POINT('',(1.067605280998E0,6.919180450853E0,1.067298035604E0));
#101=CARTESIAN_POINT('',(8.398593775741E-1,6.950876283032E0,1.254298052197E0));
#102=CARTESIAN_POINT('',(5.798173640675E-1,6.977810234032E0,1.394236344048E0));
#103=CARTESIAN_POINT('',(2.898596808579E-1,6.996029875825E0,1.481666905873E0));
#104=CARTESIAN_POINT('',(9.754769113253E-2,7.E0,1.5E0));
#105=CARTESIAN_POINT('',(0.E0,7.E0,1.5E0));
#107=CARTESIAN_POINT('',(0.E0,7.E0,-1.5E0));
#108=CARTESIAN_POINT('',(8.633663722338E-2,7.E0,-1.5E0));
#109=CARTESIAN_POINT('',(2.573878294759E-1,6.996885721189E0,-1.485592148666E0));
#110=CARTESIAN_POINT('',(5.172019136382E-1,6.982378920735E0,-1.416376093441E0));
#111=CARTESIAN_POINT('',(7.545839250535E-1,6.960455702037E0,-1.305190974607E0));
#112=CARTESIAN_POINT('',(9.706442569067E-1,6.933364351380E0,-1.153516267243E0));
#113=CARTESIAN_POINT('',(1.154071884984E0,6.904904450398E0,-9.699835530651E-1));
#114=CARTESIAN_POINT('',(1.305655419944E0,6.877589185822E0,-7.537976972197E-1));
#115=CARTESIAN_POINT('',(1.416185512408E0,6.855443133822E0,-5.171623501124E-1));
#116=CARTESIAN_POINT('',(1.484857162758E0,6.840748501182E0,-2.611658972394E-1));
#117=CARTESIAN_POINT('',(1.5E0,6.837397165589E0,-8.804535146793E-2));
#118=CARTESIAN_POINT('',(1.5E0,6.837397165589E0,0.E0));
#120=DIRECTION('',(0.E0,0.E0,-1.E0));
#121=VECTOR('',#120,3.9E0);
#122=CARTESIAN_POINT('',(0.E0,7.E0,-1.5E0));
#123=LINE('',#122,#121);
#124=DIRECTION('',(0.E0,0.E0,-1.E0));
#125=VECTOR('',#124,1.08E1);
#126=CARTESIAN_POINT('',(0.E0,-7.E0,5.4E0));
#127=LINE('',#126,#125);
#128=CARTESIAN_POINT('',(0.E0,0.E0,5.4E0));
#129=DIRECTION('',(0.E0,0.E0,1.E0));
#130=DIRECTION('',(0.E0,-1.E0,0.E0));
#131=AXIS2_PLACEMENT_3D('',#128,#129,#130);
#133=DIRECTION('',(0.E0,0.E0,-1.E0));
#134=VECTOR('',#133,3.9E0);
#135=CARTESIAN_POINT('',(0.E0,7.E0,5.4E0));
#136=LINE('',#135,#134);
#137=DIRECTION('',(0.E0,-1.E0,0.E0));
#138=VECTOR('',#137,9.814578728706E-1);
#139=CARTESIAN_POINT('',(-1.5E0,6.837397165589E0,0.E0));
#140=LINE('',#139,#138);
#141=CARTESIAN_POINT('',(-1.5E0,5.855939292718E0,0.E0));
#142=CARTESIAN_POINT('',(-1.5E0,5.855939292718E0,8.814112080025E-2));
#143=CARTESIAN_POINT('',(-1.484827237124E0,5.859860716747E0,2.613987291254E-1));
#144=CARTESIAN_POINT('',(-1.416061893193E0,5.877033329878E0,5.174979122672E-1));
#145=CARTESIAN_POINT('',(-1.305548916898E0,5.902847145068E0,7.539520077197E-1));
#146=CARTESIAN_POINT('',(-1.154119176325E0,5.934618117310E0,9.699001133139E-1));
#147=CARTESIAN_POINT('',(-9.709312676815E-1,5.967668651497E0,1.153255408159E0));
#148=CARTESIAN_POINT('',(-7.550784687572E-1,5.999105699363E0,1.304896951482E0));
#149=CARTESIAN_POINT('',(-5.177668117354E-1,6.024541634215E0,1.416175414383E0));
#150=CARTESIAN_POINT('',(-2.577767263768E-1,6.041381894380E0,1.485543162196E0));
#151=CARTESIAN_POINT('',(-8.647289243387E-2,6.045E0,1.5E0));
#152=CARTESIAN_POINT('',(0.E0,6.045E0,1.5E0));
#154=CARTESIAN_POINT('',(0.E0,6.045E0,-1.5E0));
#155=CARTESIAN_POINT('',(-9.770593185775E-2,6.045E0,-1.5E0));
#156=CARTESIAN_POINT('',(-2.903032460783E-1,6.040386084107E0,
-1.481597526535E0));
#157=CARTESIAN_POINT('',(-5.803201438740E-1,6.019246347535E0,
-1.394026924743E0));
#158=CARTESIAN_POINT('',(-8.402247061159E-1,5.988000949924E0,
-1.254034537512E0));
#159=CARTESIAN_POINT('',(-1.067668536208E0,5.951221175979E0,-1.067203845277E0));
#160=CARTESIAN_POINT('',(-1.254485488938E0,5.914183425064E0,
-8.396874844534E-1));
#161=CARTESIAN_POINT('',(-1.394260884866E0,5.882387812814E0,
-5.791959835128E-1));
#162=CARTESIAN_POINT('',(-1.480651697659E0,5.860947046893E0,
-2.942751061318E-1));
#163=CARTESIAN_POINT('',(-1.5E0,5.855939292718E0,-9.952989041830E-2));
#164=CARTESIAN_POINT('',(-1.5E0,5.855939292718E0,0.E0));
#166=CARTESIAN_POINT('',(0.E0,0.E0,-5.65E0));
#167=DIRECTION('',(0.E0,0.E0,-1.E0));
#168=DIRECTION('',(0.E0,-1.E0,0.E0));
#169=AXIS2_PLACEMENT_3D('',#166,#167,#168);
#171=CARTESIAN_POINT('',(0.E0,0.E0,-6.E0));
#172=DIRECTION('',(0.E0,0.E0,-1.E0));
#173=DIRECTION('',(0.E0,-1.E0,0.E0));
#174=AXIS2_PLACEMENT_3D('',#171,#172,#173);
#176=DIRECTION('',(0.E0,7.071067811865E-1,7.071067811865E-1));
#177=VECTOR('',#176,4.949747468306E-1);
#178=CARTESIAN_POINT('',(0.E0,-6.395E0,-6.E0));
#179=LINE('',#178,#177);
#180=CARTESIAN_POINT('',(0.E0,0.E0,-6.E0));
#181=DIRECTION('',(0.E0,0.E0,1.E0));
#182=DIRECTION('',(0.E0,-1.E0,0.E0));
#183=AXIS2_PLACEMENT_3D('',#180,#181,#182);
#185=DIRECTION('',(0.E0,-7.071067811865E-1,7.071067811865E-1));
#186=VECTOR('',#185,4.949747468306E-1);
#187=CARTESIAN_POINT('',(0.E0,6.395E0,-6.E0));
#188=LINE('',#187,#186);
#189=CARTESIAN_POINT('',(0.E0,0.E0,-6.E0));
#190=DIRECTION('',(0.E0,0.E0,-1.E0));
#191=DIRECTION('',(0.E0,-1.E0,0.E0));
#192=AXIS2_PLACEMENT_3D('',#189,#190,#191);
#194=CARTESIAN_POINT('',(0.E0,0.E0,-6.E0));
#195=DIRECTION('',(0.E0,0.E0,1.E0));
#196=DIRECTION('',(0.E0,-1.E0,0.E0));
#197=AXIS2_PLACEMENT_3D('',#194,#195,#196);
#199=CARTESIAN_POINT('',(0.E0,0.E0,-5.4E0));
#200=DIRECTION('',(0.E0,0.E0,-1.E0));
#201=DIRECTION('',(0.E0,-1.E0,0.E0));
#202=AXIS2_PLACEMENT_3D('',#199,#200,#201);
#204=DIRECTION('',(0.E0,3.420201433257E-1,-9.396926207859E-1));
#205=VECTOR('',#204,6.385066634855E-1);
#206=CARTESIAN_POINT('',(0.E0,-7.E0,-5.4E0));
#207=LINE('',#206,#205);
#208=CARTESIAN_POINT('',(0.E0,0.E0,-5.4E0));
#209=DIRECTION('',(0.E0,0.E0,1.E0));
#210=DIRECTION('',(0.E0,-1.E0,0.E0));
#211=AXIS2_PLACEMENT_3D('',#208,#209,#210);
#213=DIRECTION('',(0.E0,-3.420201433257E-1,-9.396926207859E-1));
#214=VECTOR('',#213,6.385066634855E-1);
#215=CARTESIAN_POINT('',(0.E0,7.E0,-5.4E0));
#216=LINE('',#215,#214);
#217=DIRECTION('',(0.E0,-3.420201433257E-1,-9.396926207859E-1));
#218=VECTOR('',#217,6.385066634855E-1);
#219=CARTESIAN_POINT('',(0.E0,-6.781617859440E0,6.E0));
#220=LINE('',#219,#218);
#221=CARTESIAN_POINT('',(0.E0,0.E0,6.E0));
#222=DIRECTION('',(0.E0,0.E0,1.E0));
#223=DIRECTION('',(0.E0,-1.E0,0.E0));
#224=AXIS2_PLACEMENT_3D('',#221,#222,#223);
#226=DIRECTION('',(0.E0,3.420201433257E-1,-9.396926207859E-1));
#227=VECTOR('',#226,6.385066634855E-1);
#228=CARTESIAN_POINT('',(0.E0,6.781617859440E0,6.E0));
#229=LINE('',#228,#227);
#230=CARTESIAN_POINT('',(0.E0,0.E0,6.E0));
#231=DIRECTION('',(0.E0,0.E0,-1.E0));
#232=DIRECTION('',(0.E0,-1.E0,0.E0));
#233=AXIS2_PLACEMENT_3D('',#230,#231,#232);
#235=CARTESIAN_POINT('',(0.E0,0.E0,6.E0));
#236=DIRECTION('',(0.E0,0.E0,-1.E0));
#237=DIRECTION('',(0.E0,-1.E0,0.E0));
#238=AXIS2_PLACEMENT_3D('',#235,#236,#237);
#240=CARTESIAN_POINT('',(0.E0,0.E0,6.E0));
#241=DIRECTION('',(0.E0,0.E0,1.E0));
#242=DIRECTION('',(0.E0,-1.E0,0.E0));
#243=AXIS2_PLACEMENT_3D('',#240,#241,#242);
#245=CARTESIAN_POINT('',(0.E0,-6.045E0,5.65E0));
#246=CARTESIAN_POINT('',(0.E0,-6.395E0,6.E0));
#247=VERTEX_POINT('',#245);
#248=VERTEX_POINT('',#246);
#249=CARTESIAN_POINT('',(0.E0,-6.781617859440E0,6.E0));
#250=CARTESIAN_POINT('',(0.E0,-7.E0,5.4E0));
#251=VERTEX_POINT('',#249);
#252=VERTEX_POINT('',#250);
#253=CARTESIAN_POINT('',(0.E0,-7.E0,-5.4E0));
#254=VERTEX_POINT('',#253);
#255=CARTESIAN_POINT('',(0.E0,-6.781617859440E0,-6.E0));
#256=VERTEX_POINT('',#255);
#257=CARTESIAN_POINT('',(0.E0,-6.395E0,-6.E0));
#258=CARTESIAN_POINT('',(0.E0,-6.045E0,-5.65E0));
#259=VERTEX_POINT('',#257);
#260=VERTEX_POINT('',#258);
#261=CARTESIAN_POINT('',(0.E0,6.045E0,5.65E0));
#262=CARTESIAN_POINT('',(0.E0,6.395E0,6.E0));
#263=VERTEX_POINT('',#261);
#264=VERTEX_POINT('',#262);
#265=CARTESIAN_POINT('',(0.E0,6.781617859440E0,6.E0));
#266=CARTESIAN_POINT('',(0.E0,7.E0,5.4E0));
#267=VERTEX_POINT('',#265);
#268=VERTEX_POINT('',#266);
#269=CARTESIAN_POINT('',(0.E0,7.E0,-5.4E0));
#270=CARTESIAN_POINT('',(0.E0,6.781617859440E0,-6.E0));
#271=VERTEX_POINT('',#269);
#272=VERTEX_POINT('',#270);
#273=CARTESIAN_POINT('',(0.E0,6.395E0,-6.E0));
#274=CARTESIAN_POINT('',(0.E0,6.045E0,-5.65E0));
#275=VERTEX_POINT('',#273);
#276=VERTEX_POINT('',#274);
#277=VERTEX_POINT('',#65);
#278=VERTEX_POINT('',#76);
#279=VERTEX_POINT('',#93);
#280=VERTEX_POINT('',#141);
#281=VERTEX_POINT('',#152);
#282=VERTEX_POINT('',#154);
#283=VERTEX_POINT('',#95);
#284=VERTEX_POINT('',#29);
#285=CARTESIAN_POINT('',(0.E0,0.E0,5.825E0));
#286=DIRECTION('',(0.E0,0.E0,1.E0));
#287=DIRECTION('',(0.E0,1.E0,0.E0));
#288=AXIS2_PLACEMENT_3D('',#285,#286,#287);
#289=CONICAL_SURFACE('',#288,6.22E0,4.5E1);
#291=ORIENTED_EDGE('',*,*,#290,.T.);
#293=ORIENTED_EDGE('',*,*,#292,.T.);
#295=ORIENTED_EDGE('',*,*,#294,.F.);
#297=ORIENTED_EDGE('',*,*,#296,.F.);
#298=EDGE_LOOP('',(#291,#293,#295,#297));
#299=FACE_OUTER_BOUND('',#298,.F.);
#300=ADVANCED_FACE('',(#299),#289,.F.);
#301=CARTESIAN_POINT('',(0.E0,0.E0,5.825E0));
#302=DIRECTION('',(0.E0,0.E0,1.E0));
#303=DIRECTION('',(0.E0,1.E0,0.E0));
#304=AXIS2_PLACEMENT_3D('',#301,#302,#303);
#305=CONICAL_SURFACE('',#304,6.22E0,4.5E1);
#306=ORIENTED_EDGE('',*,*,#290,.F.);
#308=ORIENTED_EDGE('',*,*,#307,.T.);
#309=ORIENTED_EDGE('',*,*,#294,.T.);
#311=ORIENTED_EDGE('',*,*,#310,.F.);
#312=EDGE_LOOP('',(#306,#308,#309,#311));
#313=FACE_OUTER_BOUND('',#312,.F.);
#314=ADVANCED_FACE('',(#313),#305,.F.);
#315=CARTESIAN_POINT('',(0.E0,0.E0,6.6E0));
#316=DIRECTION('',(0.E0,0.E0,-1.E0));
#317=DIRECTION('',(0.E0,-1.E0,0.E0));
#318=AXIS2_PLACEMENT_3D('',#315,#316,#317);
#319=CYLINDRICAL_SURFACE('',#318,6.045E0);
#321=ORIENTED_EDGE('',*,*,#320,.F.);
#323=ORIENTED_EDGE('',*,*,#322,.T.);
#324=ORIENTED_EDGE('',*,*,#307,.F.);
#326=ORIENTED_EDGE('',*,*,#325,.F.);
#328=ORIENTED_EDGE('',*,*,#327,.T.);
#330=ORIENTED_EDGE('',*,*,#329,.T.);
#332=ORIENTED_EDGE('',*,*,#331,.F.);
#333=EDGE_LOOP('',(#321,#323,#324,#326,#328,#330,#332));
#334=FACE_OUTER_BOUND('',#333,.F.);
#335=ADVANCED_FACE('',(#334),#319,.F.);
#336=CARTESIAN_POINT('',(0.E0,7.E0,0.E0));
#337=DIRECTION('',(0.E0,-1.E0,0.E0));
#338=DIRECTION('',(1.E0,0.E0,0.E0));
#339=AXIS2_PLACEMENT_3D('',#336,#337,#338);
#340=CYLINDRICAL_SURFACE('',#339,1.5E0);
#342=ORIENTED_EDGE('',*,*,#341,.T.);
#344=ORIENTED_EDGE('',*,*,#343,.T.);
#346=ORIENTED_EDGE('',*,*,#345,.T.);
#347=ORIENTED_EDGE('',*,*,#320,.T.);
#349=ORIENTED_EDGE('',*,*,#348,.F.);
#351=ORIENTED_EDGE('',*,*,#350,.T.);
#352=EDGE_LOOP('',(#342,#344,#346,#347,#349,#351));
#353=FACE_OUTER_BOUND('',#352,.F.);
#354=ADVANCED_FACE('',(#353),#340,.F.);
#355=CARTESIAN_POINT('',(0.E0,0.E0,6.6E0));
#356=DIRECTION('',(0.E0,0.E0,-1.E0));
#357=DIRECTION('',(0.E0,-1.E0,0.E0));
#358=AXIS2_PLACEMENT_3D('',#355,#356,#357);
#359=CYLINDRICAL_SURFACE('',#358,7.E0);
#360=ORIENTED_EDGE('',*,*,#341,.F.);
#362=ORIENTED_EDGE('',*,*,#361,.F.);
#364=ORIENTED_EDGE('',*,*,#363,.F.);
#366=ORIENTED_EDGE('',*,*,#365,.T.);
#368=ORIENTED_EDGE('',*,*,#367,.T.);
#370=ORIENTED_EDGE('',*,*,#369,.F.);
#372=ORIENTED_EDGE('',*,*,#371,.F.);
#373=EDGE_LOOP('',(#360,#362,#364,#366,#368,#370,#372));
#374=FACE_OUTER_BOUND('',#373,.F.);
#375=ADVANCED_FACE('',(#374),#359,.T.);
#376=CARTESIAN_POINT('',(0.E0,0.E0,6.6E0));
#377=DIRECTION('',(0.E0,0.E0,-1.E0));
#378=DIRECTION('',(0.E0,-1.E0,0.E0));
#379=AXIS2_PLACEMENT_3D('',#376,#377,#378);
#380=CYLINDRICAL_SURFACE('',#379,7.E0);
#381=ORIENTED_EDGE('',*,*,#350,.F.);
#383=ORIENTED_EDGE('',*,*,#382,.F.);
#384=ORIENTED_EDGE('',*,*,#369,.T.);
#386=ORIENTED_EDGE('',*,*,#385,.F.);
#387=ORIENTED_EDGE('',*,*,#365,.F.);
#389=ORIENTED_EDGE('',*,*,#388,.T.);
#390=ORIENTED_EDGE('',*,*,#361,.T.);
#391=EDGE_LOOP('',(#381,#383,#384,#386,#387,#389,#390));
#392=FACE_OUTER_BOUND('',#391,.F.);
#393=ADVANCED_FACE('',(#392),#380,.T.);
#394=CARTESIAN_POINT('',(0.E0,7.E0,0.E0));
#395=DIRECTION('',(0.E0,-1.E0,0.E0));
#396=DIRECTION('',(1.E0,0.E0,0.E0));
#397=AXIS2_PLACEMENT_3D('',#394,#395,#396);
#398=CYLINDRICAL_SURFACE('',#397,1.5E0);
#399=ORIENTED_EDGE('',*,*,#371,.T.);
#400=ORIENTED_EDGE('',*,*,#382,.T.);
#401=ORIENTED_EDGE('',*,*,#348,.T.);
#402=ORIENTED_EDGE('',*,*,#331,.T.);
#404=ORIENTED_EDGE('',*,*,#403,.T.);
#405=ORIENTED_EDGE('',*,*,#343,.F.);
#406=EDGE_LOOP('',(#399,#400,#401,#402,#404,#405));
#407=FACE_OUTER_BOUND('',#406,.F.);
#408=ADVANCED_FACE('',(#407),#398,.F.);
#409=CARTESIAN_POINT('',(0.E0,0.E0,6.6E0));
#410=DIRECTION('',(0.E0,0.E0,-1.E0));
#411=DIRECTION('',(0.E0,-1.E0,0.E0));
#412=AXIS2_PLACEMENT_3D('',#409,#410,#411);
#413=CYLINDRICAL_SURFACE('',#412,6.045E0);
#414=ORIENTED_EDGE('',*,*,#345,.F.);
#415=ORIENTED_EDGE('',*,*,#403,.F.);
#416=ORIENTED_EDGE('',*,*,#329,.F.);
#418=ORIENTED_EDGE('',*,*,#417,.F.);
#419=ORIENTED_EDGE('',*,*,#325,.T.);
#420=ORIENTED_EDGE('',*,*,#296,.T.);
#421=ORIENTED_EDGE('',*,*,#322,.F.);
#422=EDGE_LOOP('',(#414,#415,#416,#418,#419,#420,#421));
#423=FACE_OUTER_BOUND('',#422,.F.);
#424=ADVANCED_FACE('',(#423),#413,.F.);
#425=CARTESIAN_POINT('',(0.E0,0.E0,-5.825E0));
#426=DIRECTION('',(0.E0,0.E0,-1.E0));
#427=DIRECTION('',(0.E0,-1.E0,0.E0));
#428=AXIS2_PLACEMENT_3D('',#425,#426,#427);
#429=CONICAL_SURFACE('',#428,6.22E0,4.5E1);
#431=ORIENTED_EDGE('',*,*,#430,.T.);
#432=ORIENTED_EDGE('',*,*,#417,.T.);
#434=ORIENTED_EDGE('',*,*,#433,.F.);
#436=ORIENTED_EDGE('',*,*,#435,.F.);
#437=EDGE_LOOP('',(#431,#432,#434,#436));
#438=FACE_OUTER_BOUND('',#437,.F.);
#439=ADVANCED_FACE('',(#438),#429,.F.);
#440=CARTESIAN_POINT('',(0.E0,0.E0,-5.825E0));
#441=DIRECTION('',(0.E0,0.E0,-1.E0));
#442=DIRECTION('',(0.E0,-1.E0,0.E0));
#443=AXIS2_PLACEMENT_3D('',#440,#441,#442);
#444=CONICAL_SURFACE('',#443,6.22E0,4.5E1);
#445=ORIENTED_EDGE('',*,*,#430,.F.);
#447=ORIENTED_EDGE('',*,*,#446,.T.);
#448=ORIENTED_EDGE('',*,*,#433,.T.);
#449=ORIENTED_EDGE('',*,*,#327,.F.);
#450=EDGE_LOOP('',(#445,#447,#448,#449));
#451=FACE_OUTER_BOUND('',#450,.F.);
#452=ADVANCED_FACE('',(#451),#444,.F.);
#453=CARTESIAN_POINT('',(0.E0,0.E0,-6.E0));
#454=DIRECTION('',(0.E0,0.E0,-1.E0));
#455=DIRECTION('',(0.E0,-1.E0,0.E0));
#456=AXIS2_PLACEMENT_3D('',#453,#454,#455);
#457=PLANE('',#456);
#459=ORIENTED_EDGE('',*,*,#458,.F.);
#461=ORIENTED_EDGE('',*,*,#460,.T.);
#462=EDGE_LOOP('',(#459,#461));
#463=FACE_OUTER_BOUND('',#462,.F.);
#464=ORIENTED_EDGE('',*,*,#446,.F.);
#465=ORIENTED_EDGE('',*,*,#435,.T.);
#466=EDGE_LOOP('',(#464,#465));
#467=FACE_BOUND('',#466,.F.);
#468=ADVANCED_FACE('',(#463,#467),#457,.T.);
#469=CARTESIAN_POINT('',(0.E0,0.E0,-5.7E0));
#470=DIRECTION('',(0.E0,0.E0,1.E0));
#471=DIRECTION('',(0.E0,1.E0,0.E0));
#472=AXIS2_PLACEMENT_3D('',#469,#470,#471);
#473=CONICAL_SURFACE('',#472,6.890808929720E0,2.E1);
#475=ORIENTED_EDGE('',*,*,#474,.T.);
#476=ORIENTED_EDGE('',*,*,#458,.T.);
#478=ORIENTED_EDGE('',*,*,#477,.F.);
#479=ORIENTED_EDGE('',*,*,#367,.F.);
#480=EDGE_LOOP('',(#475,#476,#478,#479));
#481=FACE_OUTER_BOUND('',#480,.F.);
#482=ADVANCED_FACE('',(#481),#473,.T.);
#483=CARTESIAN_POINT('',(0.E0,0.E0,-5.7E0));
#484=DIRECTION('',(0.E0,0.E0,1.E0));
#485=DIRECTION('',(0.E0,1.E0,0.E0));
#486=AXIS2_PLACEMENT_3D('',#483,#484,#485);
#487=CONICAL_SURFACE('',#486,6.890808929720E0,2.E1);
#488=ORIENTED_EDGE('',*,*,#474,.F.);
#489=ORIENTED_EDGE('',*,*,#385,.T.);
#490=ORIENTED_EDGE('',*,*,#477,.T.);
#491=ORIENTED_EDGE('',*,*,#460,.F.);
#492=EDGE_LOOP('',(#488,#489,#490,#491));
#493=FACE_OUTER_BOUND('',#492,.F.);
#494=ADVANCED_FACE('',(#493),#487,.T.);
#495=CARTESIAN_POINT('',(0.E0,0.E0,5.7E0));
#496=DIRECTION('',(0.E0,0.E0,-1.E0));
#497=DIRECTION('',(0.E0,-1.E0,0.E0));
#498=AXIS2_PLACEMENT_3D('',#495,#496,#497);
#499=CONICAL_SURFACE('',#498,6.890808929720E0,2.E1);
#501=ORIENTED_EDGE('',*,*,#500,.F.);
#503=ORIENTED_EDGE('',*,*,#502,.T.);
#505=ORIENTED_EDGE('',*,*,#504,.T.);
#506=ORIENTED_EDGE('',*,*,#388,.F.);
#507=EDGE_LOOP('',(#501,#503,#505,#506));
#508=FACE_OUTER_BOUND('',#507,.F.);
#509=ADVANCED_FACE('',(#508),#499,.T.);
#510=CARTESIAN_POINT('',(0.E0,0.E0,5.7E0));
#511=DIRECTION('',(0.E0,0.E0,-1.E0));
#512=DIRECTION('',(0.E0,-1.E0,0.E0));
#513=AXIS2_PLACEMENT_3D('',#510,#511,#512);
#514=CONICAL_SURFACE('',#513,6.890808929720E0,2.E1);
#515=ORIENTED_EDGE('',*,*,#500,.T.);
#516=ORIENTED_EDGE('',*,*,#363,.T.);
#517=ORIENTED_EDGE('',*,*,#504,.F.);
#519=ORIENTED_EDGE('',*,*,#518,.F.);
#520=EDGE_LOOP('',(#515,#516,#517,#519));
#521=FACE_OUTER_BOUND('',#520,.F.);
#522=ADVANCED_FACE('',(#521),#514,.T.);
#523=CARTESIAN_POINT('',(0.E0,0.E0,6.E0));
#524=DIRECTION('',(0.E0,0.E0,-1.E0));
#525=DIRECTION('',(0.E0,-1.E0,0.E0));
#526=AXIS2_PLACEMENT_3D('',#523,#524,#525);
#527=PLANE('',#526);
#528=ORIENTED_EDGE('',*,*,#502,.F.);
#529=ORIENTED_EDGE('',*,*,#518,.T.);
#530=EDGE_LOOP('',(#528,#529));
#531=FACE_OUTER_BOUND('',#530,.F.);
#532=ORIENTED_EDGE('',*,*,#292,.F.);
#533=ORIENTED_EDGE('',*,*,#310,.T.);
#534=EDGE_LOOP('',(#532,#533));
#535=FACE_BOUND('',#534,.F.);
#536=ADVANCED_FACE('',(#531,#535),#527,.F.);
#537=CLOSED_SHELL('',(#300,#314,#335,#354,#375,#393,#408,#424,#439,#452,#468,
#482,#494,#509,#522,#536));
#538=MANIFOLD_SOLID_BREP('',#537);
#540=DIMENSIONAL_EXPONENTS(0.E0,0.E0,0.E0,0.E0,0.E0,0.E0,0.E0);
#542=PLANE_ANGLE_MEASURE_WITH_UNIT(PLANE_ANGLE_MEASURE(1.745329251994E-2),#541);
#543=(CONVERSION_BASED_UNIT('DEGREE',#542)NAMED_UNIT(*)PLANE_ANGLE_UNIT());
#545=UNCERTAINTY_MEASURE_WITH_UNIT(LENGTH_MEASURE(2.315074773863E-3),#539,
'closure',
'Maximum model space distance between geometric entities at asserted connectivities');
#546=(GEOMETRIC_REPRESENTATION_CONTEXT(3)GLOBAL_UNCERTAINTY_ASSIGNED_CONTEXT((
#545))GLOBAL_UNIT_ASSIGNED_CONTEXT((#539,#543,#544))REPRESENTATION_CONTEXT
('ID1','3'));
#548=APPLICATION_CONTEXT(
'CONFIGURATION CONTROLLED 3D DESIGNS OF MECHANICAL PARTS AND ASSEMBLIES');
#549=APPLICATION_PROTOCOL_DEFINITION('international standard',
'config_control_design',1994,#548);
#550=DESIGN_CONTEXT('',#548,'design');
#551=MECHANICAL_CONTEXT('',#548,'mechanical');
#552=PRODUCT('PG__A_2016_10_21','PG__A_2016_10_21','NOT SPECIFIED',(#551));
#553=PRODUCT_DEFINITION_FORMATION_WITH_SPECIFIED_SOURCE('1','LAST_VERSION',#552,
.MADE.);
#557=PRODUCT_CATEGORY('part','');
#558=PRODUCT_RELATED_PRODUCT_CATEGORY('detail','',(#552));
#559=PRODUCT_CATEGORY_RELATIONSHIP('','',#557,#558);
#560=SECURITY_CLASSIFICATION_LEVEL('unclassified');
#561=SECURITY_CLASSIFICATION('','',#560);
#562=CC_DESIGN_SECURITY_CLASSIFICATION(#561,(#553));
#563=APPROVAL_STATUS('approved');
#564=APPROVAL(#563,'');
#565=CC_DESIGN_APPROVAL(#564,(#561,#553,#554));
#566=CALENDAR_DATE(116,5,8);
#567=COORDINATED_UNIVERSAL_TIME_OFFSET(2,0,.AHEAD.);
#568=LOCAL_TIME(11,47,5.9E1,#567);
#569=DATE_AND_TIME(#566,#568);
#570=APPROVAL_DATE_TIME(#569,#564);
#571=DATE_TIME_ROLE('creation_date');
#572=CC_DESIGN_DATE_AND_TIME_ASSIGNMENT(#569,#571,(#554));
#573=DATE_TIME_ROLE('classification_date');
#574=CC_DESIGN_DATE_AND_TIME_ASSIGNMENT(#569,#573,(#561));
#575=PERSON('UNSPECIFIED','UNSPECIFIED',$,$,$,$);
#576=ORGANIZATION('UNSPECIFIED','UNSPECIFIED','UNSPECIFIED');
#577=PERSON_AND_ORGANIZATION(#575,#576);
#578=APPROVAL_ROLE('approver');
#579=APPROVAL_PERSON_ORGANIZATION(#577,#564,#578);
#580=PERSON_AND_ORGANIZATION_ROLE('creator');
#581=CC_DESIGN_PERSON_AND_ORGANIZATION_ASSIGNMENT(#577,#580,(#553,#554));
#582=PERSON_AND_ORGANIZATION_ROLE('design_supplier');
#583=CC_DESIGN_PERSON_AND_ORGANIZATION_ASSIGNMENT(#577,#582,(#553));
#584=PERSON_AND_ORGANIZATION_ROLE('classification_officer');
#585=CC_DESIGN_PERSON_AND_ORGANIZATION_ASSIGNMENT(#577,#584,(#561));
#586=PERSON_AND_ORGANIZATION_ROLE('design_owner');
#587=CC_DESIGN_PERSON_AND_ORGANIZATION_ASSIGNMENT(#577,#586,(#552));
#5=CIRCLE('',#4,6.045E0);
#14=CIRCLE('',#13,6.045E0);
#30=B_SPLINE_CURVE_WITH_KNOTS('',3,(#19,#20,#21,#22,#23,#24,#25,#26,#27,#28,
#29),.UNSPECIFIED.,.F.,.F.,(4,1,1,1,1,1,1,1,4),(0.E0,1.25E-1,2.5E-1,3.75E-1,
5.E-1,6.25E-1,7.5E-1,8.75E-1,1.E0),.UNSPECIFIED.);
#43=CIRCLE('',#42,6.045E0);
#60=B_SPLINE_CURVE_WITH_KNOTS('',3,(#48,#49,#50,#51,#52,#53,#54,#55,#56,#57,#58,
#59),.UNSPECIFIED.,.F.,.F.,(4,1,1,1,1,1,1,1,1,4),(0.E0,1.111111111111E-1,
2.222222222222E-1,3.333333333333E-1,4.444444444444E-1,5.555555555556E-1,
6.666666666667E-1,7.777777777778E-1,8.888888888889E-1,1.E0),.UNSPECIFIED.);
#77=B_SPLINE_CURVE_WITH_KNOTS('',3,(#65,#66,#67,#68,#69,#70,#71,#72,#73,#74,#75,
#76),.UNSPECIFIED.,.F.,.F.,(4,1,1,1,1,1,1,1,1,4),(0.E0,1.111111111111E-1,
2.222222222222E-1,3.333333333333E-1,4.444444444444E-1,5.555555555556E-1,
6.666666666667E-1,7.777777777778E-1,8.888888888889E-1,1.E0),.UNSPECIFIED.);
#82=CIRCLE('',#81,7.E0);
#94=B_SPLINE_CURVE_WITH_KNOTS('',3,(#83,#84,#85,#86,#87,#88,#89,#90,#91,#92,
#93),.UNSPECIFIED.,.F.,.F.,(4,1,1,1,1,1,1,1,4),(0.E0,1.25E-1,2.5E-1,3.75E-1,
5.E-1,6.25E-1,7.5E-1,8.75E-1,1.E0),.UNSPECIFIED.);
#106=B_SPLINE_CURVE_WITH_KNOTS('',3,(#95,#96,#97,#98,#99,#100,#101,#102,#103,
#104,#105),.UNSPECIFIED.,.F.,.F.,(4,1,1,1,1,1,1,1,4),(0.E0,1.25E-1,2.5E-1,
3.75E-1,5.E-1,6.25E-1,7.5E-1,8.75E-1,1.E0),.UNSPECIFIED.);
#119=B_SPLINE_CURVE_WITH_KNOTS('',3,(#107,#108,#109,#110,#111,#112,#113,#114,
#115,#116,#117,#118),.UNSPECIFIED.,.F.,.F.,(4,1,1,1,1,1,1,1,1,4),(0.E0,
1.111111111111E-1,2.222222222222E-1,3.333333333333E-1,4.444444444444E-1,
5.555555555556E-1,6.666666666667E-1,7.777777777778E-1,8.888888888889E-1,1.E0),
.UNSPECIFIED.);
#132=CIRCLE('',#131,7.E0);
#153=B_SPLINE_CURVE_WITH_KNOTS('',3,(#141,#142,#143,#144,#145,#146,#147,#148,
#149,#150,#151,#152),.UNSPECIFIED.,.F.,.F.,(4,1,1,1,1,1,1,1,1,4),(0.E0,
1.111111111111E-1,2.222222222222E-1,3.333333333333E-1,4.444444444444E-1,
5.555555555556E-1,6.666666666667E-1,7.777777777778E-1,8.888888888889E-1,1.E0),
.UNSPECIFIED.);
#165=B_SPLINE_CURVE_WITH_KNOTS('',3,(#154,#155,#156,#157,#158,#159,#160,#161,
#162,#163,#164),.UNSPECIFIED.,.F.,.F.,(4,1,1,1,1,1,1,1,4),(0.E0,1.25E-1,2.5E-1,
3.75E-1,5.E-1,6.25E-1,7.5E-1,8.75E-1,1.E0),.UNSPECIFIED.);
#170=CIRCLE('',#169,6.045E0);
#175=CIRCLE('',#174,6.395E0);
#184=CIRCLE('',#183,6.395E0);
#193=CIRCLE('',#192,6.781617859440E0);
#198=CIRCLE('',#197,6.781617859440E0);
#203=CIRCLE('',#202,7.E0);
#212=CIRCLE('',#211,7.E0);
#225=CIRCLE('',#224,6.781617859440E0);
#234=CIRCLE('',#233,6.781617859440E0);
#239=CIRCLE('',#238,6.395E0);
#244=CIRCLE('',#243,6.395E0);
#290=EDGE_CURVE('',#247,#248,#9,.T.);
#292=EDGE_CURVE('',#248,#264,#239,.T.);
#294=EDGE_CURVE('',#263,#264,#18,.T.);
#296=EDGE_CURVE('',#247,#263,#5,.T.);
#307=EDGE_CURVE('',#247,#263,#14,.T.);
#310=EDGE_CURVE('',#248,#264,#244,.T.);
#320=EDGE_CURVE('',#281,#284,#30,.T.);
#322=EDGE_CURVE('',#281,#263,#34,.T.);
#325=EDGE_CURVE('',#260,#247,#38,.T.);
#327=EDGE_CURVE('',#260,#276,#43,.T.);
#329=EDGE_CURVE('',#276,#282,#47,.T.);
#331=EDGE_CURVE('',#284,#282,#60,.T.);
#341=EDGE_CURVE('',#277,#278,#77,.T.);
#343=EDGE_CURVE('',#278,#280,#140,.T.);
#345=EDGE_CURVE('',#280,#281,#153,.T.);
#348=EDGE_CURVE('',#283,#284,#64,.T.);
#350=EDGE_CURVE('',#283,#277,#106,.T.);
#361=EDGE_CURVE('',#268,#277,#136,.T.);
#363=EDGE_CURVE('',#252,#268,#82,.T.);
#365=EDGE_CURVE('',#252,#254,#127,.T.);
#367=EDGE_CURVE('',#254,#271,#203,.T.);
#369=EDGE_CURVE('',#279,#271,#123,.T.);
#371=EDGE_CURVE('',#278,#279,#94,.T.);
#382=EDGE_CURVE('',#279,#283,#119,.T.);
#385=EDGE_CURVE('',#254,#271,#212,.T.);
#388=EDGE_CURVE('',#252,#268,#132,.T.);
#403=EDGE_CURVE('',#282,#280,#165,.T.);
#417=EDGE_CURVE('',#260,#276,#170,.T.);
#430=EDGE_CURVE('',#259,#260,#179,.T.);
#433=EDGE_CURVE('',#275,#276,#188,.T.);
#435=EDGE_CURVE('',#259,#275,#175,.T.);
#446=EDGE_CURVE('',#259,#275,#184,.T.);
#458=EDGE_CURVE('',#256,#272,#193,.T.);
#460=EDGE_CURVE('',#256,#272,#198,.T.);
#474=EDGE_CURVE('',#254,#256,#207,.T.);
#477=EDGE_CURVE('',#271,#272,#216,.T.);
#500=EDGE_CURVE('',#251,#252,#220,.T.);
#502=EDGE_CURVE('',#251,#267,#225,.T.);
#504=EDGE_CURVE('',#267,#268,#229,.T.);
#518=EDGE_CURVE('',#251,#267,#234,.T.);
#539=(LENGTH_UNIT()NAMED_UNIT(*)SI_UNIT(.MILLI.,.METRE.));
#541=(NAMED_UNIT(*)PLANE_ANGLE_UNIT()SI_UNIT($,.RADIAN.));
#544=(NAMED_UNIT(*)SI_UNIT($,.STERADIAN.)SOLID_ANGLE_UNIT());
#547=ADVANCED_BREP_SHAPE_REPRESENTATION('',(#538),#546);
#554=PRODUCT_DEFINITION('design','',#553,#550);
#555=PRODUCT_DEFINITION_SHAPE('','SHAPE FOR PG__A_2016_10_21.',#554);
#556=SHAPE_DEFINITION_REPRESENTATION(#555,#547);
ENDSEC;
END-ISO-10303-21;
