ISO-10303-21;
HEADER;
FILE_DESCRIPTION((''),'2;1');
FILE_NAME('PG__A_2016_10_21','2016-08-05T',('deusss58'),(''),
'PRO/ENGINEER BY PARAMETRIC TECHNOLOGY CORPORATION, 2014430',
'PRO/ENGINEER BY PARAMETRIC TECHNOLOGY CORPORATION, 2014430','');
FILE_SCHEMA(('CONFIG_CONTROL_DESIGN'));
ENDSEC;
DATA;
#1=CARTESIAN_POINT('',(0.E0,0.E0,7.15E0));
#2=DIRECTION('',(0.E0,0.E0,-1.E0));
#3=DIRECTION('',(0.E0,-1.E0,0.E0));
#4=AXIS2_PLACEMENT_3D('',#1,#2,#3);
#6=DIRECTION('',(0.E0,-7.071067811865E-1,7.071067811865E-1));
#7=VECTOR('',#6,4.949747468306E-1);
#8=CARTESIAN_POINT('',(0.E0,-6.045E0,7.15E0));
#9=LINE('',#8,#7);
#10=CARTESIAN_POINT('',(0.E0,0.E0,7.15E0));
#11=DIRECTION('',(0.E0,0.E0,1.E0));
#12=DIRECTION('',(0.E0,-1.E0,0.E0));
#13=AXIS2_PLACEMENT_3D('',#10,#11,#12);
#15=DIRECTION('',(0.E0,7.071067811865E-1,7.071067811865E-1));
#16=VECTOR('',#15,4.949747468306E-1);
#17=CARTESIAN_POINT('',(0.E0,6.045E0,7.15E0));
#18=LINE('',#17,#16);
#19=CARTESIAN_POINT('',(0.E0,6.045E0,1.5E0));
#20=CARTESIAN_POINT('',(9.726429115396E-2,6.045E0,1.5E0));
#21=CARTESIAN_POINT('',(2.892903336506E-1,6.040441691379E0,1.481823938324E0));
#22=CARTESIAN_POINT('',(5.804167396977E-1,6.019249272076E0,1.394045000003E0));
#23=CARTESIAN_POINT('',(8.402967348520E-1,5.987986652503E0,1.253966083211E0));
#24=CARTESIAN_POINT('',(1.067648222147E0,5.951224629200E0,1.067215474845E0));
#25=CARTESIAN_POINT('',(1.254424887323E0,5.914196357742E0,8.397792800868E-1));
#26=CARTESIAN_POINT('',(1.394270898582E0,5.882385887907E0,5.791948046998E-1));
#27=CARTESIAN_POINT('',(1.480666422325E0,5.860943184603E0,2.942020499924E-1));
#28=CARTESIAN_POINT('',(1.5E0,5.855939292718E0,9.949515521150E-2));
#29=CARTESIAN_POINT('',(1.5E0,5.855939292718E0,0.E0));
#31=DIRECTION('',(0.E0,0.E0,1.E0));
#32=VECTOR('',#31,5.65E0);
#33=CARTESIAN_POINT('',(0.E0,6.045E0,1.5E0));
#34=LINE('',#33,#32);
#35=DIRECTION('',(0.E0,0.E0,1.E0));
#36=VECTOR('',#35,1.43E1);
#37=CARTESIAN_POINT('',(0.E0,-6.045E0,-7.15E0));
#38=LINE('',#37,#36);
#39=CARTESIAN_POINT('',(0.E0,0.E0,-7.15E0));
#40=DIRECTION('',(0.E0,0.E0,1.E0));
#41=DIRECTION('',(0.E0,-1.E0,0.E0));
#42=AXIS2_PLACEMENT_3D('',#39,#40,#41);
#44=DIRECTION('',(0.E0,0.E0,1.E0));
#45=VECTOR('',#44,5.65E0);
#46=CARTESIAN_POINT('',(0.E0,6.045E0,-7.15E0));
#47=LINE('',#46,#45);
#48=CARTESIAN_POINT('',(1.5E0,5.855939292718E0,0.E0));
#49=CARTESIAN_POINT('',(1.5E0,5.855939292718E0,-8.811827905019E-2));
#50=CARTESIAN_POINT('',(1.484835816297E0,5.859858501198E0,-2.613509435570E-1));
#51=CARTESIAN_POINT('',(1.416068253275E0,5.877031914705E0,-5.174932893036E-1));
#52=CARTESIAN_POINT('',(1.305515775817E0,5.902854810744E0,-7.540158780494E-1));
#53=CARTESIAN_POINT('',(1.154067781352E0,5.934627937668E0,-9.699565597989E-1));
#54=CARTESIAN_POINT('',(9.709437642947E-1,5.967665494687E0,-1.153235208367E0));
#55=CARTESIAN_POINT('',(7.551675126965E-1,5.999094327284E0,-1.304847598427E0));
#56=CARTESIAN_POINT('',(5.175562810954E-1,6.024570465428E0,-1.416301477041E0));
#57=CARTESIAN_POINT('',(2.567934619973E-1,6.041426071879E0,-1.485721375150E0));
#58=CARTESIAN_POINT('',(8.604374515165E-2,6.045E0,-1.5E0));
#59=CARTESIAN_POINT('',(0.E0,6.045E0,-1.5E0));
#61=DIRECTION('',(0.E0,-1.E0,0.E0));
#62=VECTOR('',#61,9.814578728706E-1);
#63=CARTESIAN_POINT('',(1.5E0,6.837397165589E0,0.E0));
#64=LINE('',#63,#62);
#65=CARTESIAN_POINT('',(0.E0,7.E0,1.5E0));
#66=CARTESIAN_POINT('',(-9.708544960545E-2,7.E0,1.5E0));
#67=CARTESIAN_POINT('',(-2.887996044050E-1,6.996077754508E0,1.481892193711E0));
#68=CARTESIAN_POINT('',(-5.797101622040E-1,6.977829523429E0,1.394335847776E0));
#69=CARTESIAN_POINT('',(-8.399424760408E-1,6.950867055590E0,1.254257864085E0));
#70=CARTESIAN_POINT('',(-1.067895367487E0,6.919136199967E0,1.067014289816E0));
#71=CARTESIAN_POINT('',(-1.254706798581E0,6.887297659445E0,8.393754836565E-1));
#72=CARTESIAN_POINT('',(-1.394534134849E0,6.860002407926E0,5.785626514790E-1));
#73=CARTESIAN_POINT('',(-1.480728621588E0,6.841667936236E0,2.937673131467E-1));
#74=CARTESIAN_POINT('',(-1.5E0,6.837397165589E0,9.932017047410E-2));
#75=CARTESIAN_POINT('',(-1.5E0,6.837397165589E0,0.E0));
#77=CARTESIAN_POINT('',(0.E0,0.E0,6.9E0));
#78=DIRECTION('',(0.E0,0.E0,-1.E0));
#79=DIRECTION('',(0.E0,-1.E0,0.E0));
#80=AXIS2_PLACEMENT_3D('',#77,#78,#79);
#82=CARTESIAN_POINT('',(-1.5E0,6.837397165589E0,0.E0));
#83=CARTESIAN_POINT('',(-1.5E0,6.837397165589E0,-9.936443055324E-2));
#84=CARTESIAN_POINT('',(-1.480715489155E0,6.841671092502E0,-2.938862128555E-1));
#85=CARTESIAN_POINT('',(-1.394436592428E0,6.860022210204E0,-5.788014474435E-1));
#86=CARTESIAN_POINT('',(-1.254574209516E0,6.887323507122E0,-8.395934463177E-1));
#87=CARTESIAN_POINT('',(-1.067593631898E0,6.919181278636E0,-1.067293474319E0));
#88=CARTESIAN_POINT('',(-8.400904777651E-1,6.950843595381E0,-1.254115320193E0));
#89=CARTESIAN_POINT('',(-5.800217967094E-1,6.977806004524E0,-1.394223779606E0));
#90=CARTESIAN_POINT('',(-2.887854706036E-1,6.996081572697E0,-1.481910425436E0));
#91=CARTESIAN_POINT('',(-9.707430187915E-2,7.E0,-1.5E0));
#92=CARTESIAN_POINT('',(0.E0,7.E0,-1.5E0));
#94=CARTESIAN_POINT('',(1.5E0,6.837397165589E0,0.E0));
#95=CARTESIAN_POINT('',(1.5E0,6.837397165589E0,9.937319216919E-2));
#96=CARTESIAN_POINT('',(1.480710251701E0,6.841672188426E0,2.939085878543E-1));
#97=CARTESIAN_POINT('',(1.394436030410E0,6.860022435849E0,5.788049361250E-1));
#98=CARTESIAN_POINT('',(1.254554959748E0,6.887326907113E0,8.396215611550E-1));
#99=CARTESIAN_POINT('',(1.067585766030E0,6.919182914944E0,1.067305214124E0));
#100=CARTESIAN_POINT('',(8.400039945833E-1,6.950854684805E0,1.254177486095E0));
#101=CARTESIAN_POINT('',(5.799595283635E-1,6.977809975700E0,1.394241998072E0));
#102=CARTESIAN_POINT('',(2.888191744935E-1,6.996079469065E0,1.481900615463E0));
#103=CARTESIAN_POINT('',(9.709181379666E-2,7.E0,1.5E0));
#104=CARTESIAN_POINT('',(0.E0,7.E0,1.5E0));
#106=CARTESIAN_POINT('',(0.E0,7.E0,-1.5E0));
#107=CARTESIAN_POINT('',(9.710982119629E-2,7.E0,-1.5E0));
#108=CARTESIAN_POINT('',(2.888501176218E-1,6.996075082883E0,-1.481879775837E0));
#109=CARTESIAN_POINT('',(5.796676470527E-1,6.977831805844E0,-1.394345722343E0));
#110=CARTESIAN_POINT('',(8.398686077627E-1,6.950876527448E0,-1.254310989995E0));
#111=CARTESIAN_POINT('',(1.067894963155E0,6.919136662808E0,-1.067018481465E0));
#112=CARTESIAN_POINT('',(1.254693806582E0,6.887299904064E0,-8.393941306678E-1));
#113=CARTESIAN_POINT('',(1.394536591342E0,6.860002002346E0,-5.785585116505E-1));
#114=CARTESIAN_POINT('',(1.480724628264E0,6.841668759683E0,-2.937824905573E-1));
#115=CARTESIAN_POINT('',(1.5E0,6.837397165589E0,-9.932612811557E-2));
#116=CARTESIAN_POINT('',(1.5E0,6.837397165589E0,0.E0));
#118=DIRECTION('',(0.E0,0.E0,-1.E0));
#119=VECTOR('',#118,5.4E0);
#120=CARTESIAN_POINT('',(0.E0,7.E0,-1.5E0));
#121=LINE('',#120,#119);
#122=DIRECTION('',(0.E0,0.E0,-1.E0));
#123=VECTOR('',#122,1.38E1);
#124=CARTESIAN_POINT('',(0.E0,-7.E0,6.9E0));
#125=LINE('',#124,#123);
#126=CARTESIAN_POINT('',(0.E0,0.E0,6.9E0));
#127=DIRECTION('',(0.E0,0.E0,1.E0));
#128=DIRECTION('',(0.E0,-1.E0,0.E0));
#129=AXIS2_PLACEMENT_3D('',#126,#127,#128);
#131=DIRECTION('',(0.E0,0.E0,-1.E0));
#132=VECTOR('',#131,5.4E0);
#133=CARTESIAN_POINT('',(0.E0,7.E0,6.9E0));
#134=LINE('',#133,#132);
#135=DIRECTION('',(0.E0,-1.E0,0.E0));
#136=VECTOR('',#135,9.814578728706E-1);
#137=CARTESIAN_POINT('',(-1.5E0,6.837397165589E0,0.E0));
#138=LINE('',#137,#136);
#139=CARTESIAN_POINT('',(-1.5E0,5.855939292718E0,0.E0));
#140=CARTESIAN_POINT('',(-1.5E0,5.855939292718E0,9.943350395532E-2));
#141=CARTESIAN_POINT('',(-1.480687551645E0,5.860937481649E0,2.940326590369E-1));
#142=CARTESIAN_POINT('',(-1.394396879455E0,5.882355684083E0,5.788761042019E-1));
#143=CARTESIAN_POINT('',(-1.254645560960E0,5.914147292990E0,8.394266224656E-1));
#144=CARTESIAN_POINT('',(-1.068058889945E0,5.951151935096E0,1.066823270390E0));
#145=CARTESIAN_POINT('',(-8.403445648638E-1,5.987985745764E0,1.253974996131E0));
#146=CARTESIAN_POINT('',(-5.802572839275E-1,6.019263880854E0,1.394105062275E0));
#147=CARTESIAN_POINT('',(-2.893115138291E-1,6.040438530304E0,1.481810933103E0));
#148=CARTESIAN_POINT('',(-9.727193357673E-2,6.045E0,1.5E0));
#149=CARTESIAN_POINT('',(0.E0,6.045E0,1.5E0));
#151=CARTESIAN_POINT('',(0.E0,6.045E0,-1.5E0));
#152=CARTESIAN_POINT('',(-9.724679051289E-2,6.045E0,-1.5E0));
#153=CARTESIAN_POINT('',(-2.892566402461E-1,6.040444116415E0,
-1.481833699179E0));
#154=CARTESIAN_POINT('',(-5.804778651796E-1,6.019244770575E0,
-1.394027190730E0));
#155=CARTESIAN_POINT('',(-8.403825377465E-1,5.987973879679E0,
-1.253904395756E0));
#156=CARTESIAN_POINT('',(-1.067655743891E0,5.951222787366E0,-1.067204095334E0));
#157=CARTESIAN_POINT('',(-1.254443949911E0,5.914192440373E0,
-8.397514728429E-1));
#158=CARTESIAN_POINT('',(-1.394271403260E0,5.882385637741E0,
-5.791914784834E-1));
#159=CARTESIAN_POINT('',(-1.480671641033E0,5.860941910518E0,
-2.941798100961E-1));
#160=CARTESIAN_POINT('',(-1.5E0,5.855939292718E0,-9.948644147610E-2));
#161=CARTESIAN_POINT('',(-1.5E0,5.855939292718E0,0.E0));
#163=CARTESIAN_POINT('',(0.E0,0.E0,-7.15E0));
#164=DIRECTION('',(0.E0,0.E0,-1.E0));
#165=DIRECTION('',(0.E0,-1.E0,0.E0));
#166=AXIS2_PLACEMENT_3D('',#163,#164,#165);
#168=CARTESIAN_POINT('',(0.E0,0.E0,-7.5E0));
#169=DIRECTION('',(0.E0,0.E0,-1.E0));
#170=DIRECTION('',(0.E0,-1.E0,0.E0));
#171=AXIS2_PLACEMENT_3D('',#168,#169,#170);
#173=DIRECTION('',(0.E0,7.071067811865E-1,7.071067811865E-1));
#174=VECTOR('',#173,4.949747468306E-1);
#175=CARTESIAN_POINT('',(0.E0,-6.395E0,-7.5E0));
#176=LINE('',#175,#174);
#177=CARTESIAN_POINT('',(0.E0,0.E0,-7.5E0));
#178=DIRECTION('',(0.E0,0.E0,1.E0));
#179=DIRECTION('',(0.E0,-1.E0,0.E0));
#180=AXIS2_PLACEMENT_3D('',#177,#178,#179);
#182=DIRECTION('',(0.E0,-7.071067811865E-1,7.071067811865E-1));
#183=VECTOR('',#182,4.949747468306E-1);
#184=CARTESIAN_POINT('',(0.E0,6.395E0,-7.5E0));
#185=LINE('',#184,#183);
#186=CARTESIAN_POINT('',(0.E0,0.E0,-7.5E0));
#187=DIRECTION('',(0.E0,0.E0,-1.E0));
#188=DIRECTION('',(0.E0,-1.E0,0.E0));
#189=AXIS2_PLACEMENT_3D('',#186,#187,#188);
#191=CARTESIAN_POINT('',(0.E0,0.E0,-7.5E0));
#192=DIRECTION('',(0.E0,0.E0,1.E0));
#193=DIRECTION('',(0.E0,-1.E0,0.E0));
#194=AXIS2_PLACEMENT_3D('',#191,#192,#193);
#196=CARTESIAN_POINT('',(0.E0,0.E0,-6.9E0));
#197=DIRECTION('',(0.E0,0.E0,-1.E0));
#198=DIRECTION('',(0.E0,-1.E0,0.E0));
#199=AXIS2_PLACEMENT_3D('',#196,#197,#198);
#201=DIRECTION('',(0.E0,3.420201433257E-1,-9.396926207859E-1));
#202=VECTOR('',#201,6.385066634855E-1);
#203=CARTESIAN_POINT('',(0.E0,-7.E0,-6.9E0));
#204=LINE('',#203,#202);
#205=CARTESIAN_POINT('',(0.E0,0.E0,-6.9E0));
#206=DIRECTION('',(0.E0,0.E0,1.E0));
#207=DIRECTION('',(0.E0,-1.E0,0.E0));
#208=AXIS2_PLACEMENT_3D('',#205,#206,#207);
#210=DIRECTION('',(0.E0,-3.420201433257E-1,-9.396926207859E-1));
#211=VECTOR('',#210,6.385066634855E-1);
#212=CARTESIAN_POINT('',(0.E0,7.E0,-6.9E0));
#213=LINE('',#212,#211);
#214=DIRECTION('',(0.E0,-3.420201433257E-1,-9.396926207859E-1));
#215=VECTOR('',#214,6.385066634856E-1);
#216=CARTESIAN_POINT('',(0.E0,-6.781617859440E0,7.5E0));
#217=LINE('',#216,#215);
#218=CARTESIAN_POINT('',(0.E0,0.E0,7.5E0));
#219=DIRECTION('',(0.E0,0.E0,1.E0));
#220=DIRECTION('',(0.E0,-1.E0,0.E0));
#221=AXIS2_PLACEMENT_3D('',#218,#219,#220);
#223=DIRECTION('',(0.E0,3.420201433257E-1,-9.396926207859E-1));
#224=VECTOR('',#223,6.385066634856E-1);
#225=CARTESIAN_POINT('',(0.E0,6.781617859440E0,7.5E0));
#226=LINE('',#225,#224);
#227=CARTESIAN_POINT('',(0.E0,0.E0,7.5E0));
#228=DIRECTION('',(0.E0,0.E0,-1.E0));
#229=DIRECTION('',(0.E0,-1.E0,0.E0));
#230=AXIS2_PLACEMENT_3D('',#227,#228,#229);
#232=CARTESIAN_POINT('',(0.E0,0.E0,7.5E0));
#233=DIRECTION('',(0.E0,0.E0,-1.E0));
#234=DIRECTION('',(0.E0,-1.E0,0.E0));
#235=AXIS2_PLACEMENT_3D('',#232,#233,#234);
#237=CARTESIAN_POINT('',(0.E0,0.E0,7.5E0));
#238=DIRECTION('',(0.E0,0.E0,1.E0));
#239=DIRECTION('',(0.E0,-1.E0,0.E0));
#240=AXIS2_PLACEMENT_3D('',#237,#238,#239);
#242=CARTESIAN_POINT('',(0.E0,-6.045E0,7.15E0));
#243=CARTESIAN_POINT('',(0.E0,-6.395E0,7.5E0));
#244=VERTEX_POINT('',#242);
#245=VERTEX_POINT('',#243);
#246=CARTESIAN_POINT('',(0.E0,-6.781617859440E0,7.5E0));
#247=CARTESIAN_POINT('',(0.E0,-7.E0,6.9E0));
#248=VERTEX_POINT('',#246);
#249=VERTEX_POINT('',#247);
#250=CARTESIAN_POINT('',(0.E0,-7.E0,-6.9E0));
#251=VERTEX_POINT('',#250);
#252=CARTESIAN_POINT('',(0.E0,-6.781617859440E0,-7.5E0));
#253=VERTEX_POINT('',#252);
#254=CARTESIAN_POINT('',(0.E0,-6.395E0,-7.5E0));
#255=CARTESIAN_POINT('',(0.E0,-6.045E0,-7.15E0));
#256=VERTEX_POINT('',#254);
#257=VERTEX_POINT('',#255);
#258=CARTESIAN_POINT('',(0.E0,6.045E0,7.15E0));
#259=CARTESIAN_POINT('',(0.E0,6.395E0,7.5E0));
#260=VERTEX_POINT('',#258);
#261=VERTEX_POINT('',#259);
#262=CARTESIAN_POINT('',(0.E0,6.781617859440E0,7.5E0));
#263=CARTESIAN_POINT('',(0.E0,7.E0,6.9E0));
#264=VERTEX_POINT('',#262);
#265=VERTEX_POINT('',#263);
#266=CARTESIAN_POINT('',(0.E0,7.E0,-6.9E0));
#267=CARTESIAN_POINT('',(0.E0,6.781617859440E0,-7.5E0));
#268=VERTEX_POINT('',#266);
#269=VERTEX_POINT('',#267);
#270=CARTESIAN_POINT('',(0.E0,6.395E0,-7.5E0));
#271=CARTESIAN_POINT('',(0.E0,6.045E0,-7.15E0));
#272=VERTEX_POINT('',#270);
#273=VERTEX_POINT('',#271);
#274=VERTEX_POINT('',#65);
#275=VERTEX_POINT('',#75);
#276=VERTEX_POINT('',#92);
#277=VERTEX_POINT('',#139);
#278=VERTEX_POINT('',#149);
#279=VERTEX_POINT('',#151);
#280=VERTEX_POINT('',#94);
#281=VERTEX_POINT('',#29);
#282=CARTESIAN_POINT('',(0.E0,0.E0,7.325E0));
#283=DIRECTION('',(0.E0,0.E0,1.E0));
#284=DIRECTION('',(0.E0,1.E0,0.E0));
#285=AXIS2_PLACEMENT_3D('',#282,#283,#284);
#286=CONICAL_SURFACE('',#285,6.22E0,4.5E1);
#288=ORIENTED_EDGE('',*,*,#287,.T.);
#290=ORIENTED_EDGE('',*,*,#289,.T.);
#292=ORIENTED_EDGE('',*,*,#291,.F.);
#294=ORIENTED_EDGE('',*,*,#293,.F.);
#295=EDGE_LOOP('',(#288,#290,#292,#294));
#296=FACE_OUTER_BOUND('',#295,.F.);
#297=ADVANCED_FACE('',(#296),#286,.F.);
#298=CARTESIAN_POINT('',(0.E0,0.E0,7.325E0));
#299=DIRECTION('',(0.E0,0.E0,1.E0));
#300=DIRECTION('',(0.E0,1.E0,0.E0));
#301=AXIS2_PLACEMENT_3D('',#298,#299,#300);
#302=CONICAL_SURFACE('',#301,6.22E0,4.5E1);
#303=ORIENTED_EDGE('',*,*,#287,.F.);
#305=ORIENTED_EDGE('',*,*,#304,.T.);
#306=ORIENTED_EDGE('',*,*,#291,.T.);
#308=ORIENTED_EDGE('',*,*,#307,.F.);
#309=EDGE_LOOP('',(#303,#305,#306,#308));
#310=FACE_OUTER_BOUND('',#309,.F.);
#311=ADVANCED_FACE('',(#310),#302,.F.);
#312=CARTESIAN_POINT('',(0.E0,0.E0,8.25E0));
#313=DIRECTION('',(0.E0,0.E0,-1.E0));
#314=DIRECTION('',(0.E0,-1.E0,0.E0));
#315=AXIS2_PLACEMENT_3D('',#312,#313,#314);
#316=CYLINDRICAL_SURFACE('',#315,6.045E0);
#318=ORIENTED_EDGE('',*,*,#317,.F.);
#320=ORIENTED_EDGE('',*,*,#319,.T.);
#321=ORIENTED_EDGE('',*,*,#304,.F.);
#323=ORIENTED_EDGE('',*,*,#322,.F.);
#325=ORIENTED_EDGE('',*,*,#324,.T.);
#327=ORIENTED_EDGE('',*,*,#326,.T.);
#329=ORIENTED_EDGE('',*,*,#328,.F.);
#330=EDGE_LOOP('',(#318,#320,#321,#323,#325,#327,#329));
#331=FACE_OUTER_BOUND('',#330,.F.);
#332=ADVANCED_FACE('',(#331),#316,.F.);
#333=CARTESIAN_POINT('',(0.E0,7.E0,0.E0));
#334=DIRECTION('',(0.E0,-1.E0,0.E0));
#335=DIRECTION('',(1.E0,0.E0,0.E0));
#336=AXIS2_PLACEMENT_3D('',#333,#334,#335);
#337=CYLINDRICAL_SURFACE('',#336,1.5E0);
#339=ORIENTED_EDGE('',*,*,#338,.T.);
#341=ORIENTED_EDGE('',*,*,#340,.T.);
#343=ORIENTED_EDGE('',*,*,#342,.T.);
#344=ORIENTED_EDGE('',*,*,#317,.T.);
#346=ORIENTED_EDGE('',*,*,#345,.F.);
#348=ORIENTED_EDGE('',*,*,#347,.T.);
#349=EDGE_LOOP('',(#339,#341,#343,#344,#346,#348));
#350=FACE_OUTER_BOUND('',#349,.F.);
#351=ADVANCED_FACE('',(#350),#337,.F.);
#352=CARTESIAN_POINT('',(0.E0,0.E0,8.25E0));
#353=DIRECTION('',(0.E0,0.E0,-1.E0));
#354=DIRECTION('',(0.E0,-1.E0,0.E0));
#355=AXIS2_PLACEMENT_3D('',#352,#353,#354);
#356=CYLINDRICAL_SURFACE('',#355,7.E0);
#357=ORIENTED_EDGE('',*,*,#338,.F.);
#359=ORIENTED_EDGE('',*,*,#358,.F.);
#361=ORIENTED_EDGE('',*,*,#360,.F.);
#363=ORIENTED_EDGE('',*,*,#362,.T.);
#365=ORIENTED_EDGE('',*,*,#364,.T.);
#367=ORIENTED_EDGE('',*,*,#366,.F.);
#369=ORIENTED_EDGE('',*,*,#368,.F.);
#370=EDGE_LOOP('',(#357,#359,#361,#363,#365,#367,#369));
#371=FACE_OUTER_BOUND('',#370,.F.);
#372=ADVANCED_FACE('',(#371),#356,.T.);
#373=CARTESIAN_POINT('',(0.E0,0.E0,8.25E0));
#374=DIRECTION('',(0.E0,0.E0,-1.E0));
#375=DIRECTION('',(0.E0,-1.E0,0.E0));
#376=AXIS2_PLACEMENT_3D('',#373,#374,#375);
#377=CYLINDRICAL_SURFACE('',#376,7.E0);
#378=ORIENTED_EDGE('',*,*,#347,.F.);
#380=ORIENTED_EDGE('',*,*,#379,.F.);
#381=ORIENTED_EDGE('',*,*,#366,.T.);
#383=ORIENTED_EDGE('',*,*,#382,.F.);
#384=ORIENTED_EDGE('',*,*,#362,.F.);
#386=ORIENTED_EDGE('',*,*,#385,.T.);
#387=ORIENTED_EDGE('',*,*,#358,.T.);
#388=EDGE_LOOP('',(#378,#380,#381,#383,#384,#386,#387));
#389=FACE_OUTER_BOUND('',#388,.F.);
#390=ADVANCED_FACE('',(#389),#377,.T.);
#391=CARTESIAN_POINT('',(0.E0,7.E0,0.E0));
#392=DIRECTION('',(0.E0,-1.E0,0.E0));
#393=DIRECTION('',(1.E0,0.E0,0.E0));
#394=AXIS2_PLACEMENT_3D('',#391,#392,#393);
#395=CYLINDRICAL_SURFACE('',#394,1.5E0);
#396=ORIENTED_EDGE('',*,*,#368,.T.);
#397=ORIENTED_EDGE('',*,*,#379,.T.);
#398=ORIENTED_EDGE('',*,*,#345,.T.);
#399=ORIENTED_EDGE('',*,*,#328,.T.);
#401=ORIENTED_EDGE('',*,*,#400,.T.);
#402=ORIENTED_EDGE('',*,*,#340,.F.);
#403=EDGE_LOOP('',(#396,#397,#398,#399,#401,#402));
#404=FACE_OUTER_BOUND('',#403,.F.);
#405=ADVANCED_FACE('',(#404),#395,.F.);
#406=CARTESIAN_POINT('',(0.E0,0.E0,8.25E0));
#407=DIRECTION('',(0.E0,0.E0,-1.E0));
#408=DIRECTION('',(0.E0,-1.E0,0.E0));
#409=AXIS2_PLACEMENT_3D('',#406,#407,#408);
#410=CYLINDRICAL_SURFACE('',#409,6.045E0);
#411=ORIENTED_EDGE('',*,*,#342,.F.);
#412=ORIENTED_EDGE('',*,*,#400,.F.);
#413=ORIENTED_EDGE('',*,*,#326,.F.);
#415=ORIENTED_EDGE('',*,*,#414,.F.);
#416=ORIENTED_EDGE('',*,*,#322,.T.);
#417=ORIENTED_EDGE('',*,*,#293,.T.);
#418=ORIENTED_EDGE('',*,*,#319,.F.);
#419=EDGE_LOOP('',(#411,#412,#413,#415,#416,#417,#418));
#420=FACE_OUTER_BOUND('',#419,.F.);
#421=ADVANCED_FACE('',(#420),#410,.F.);
#422=CARTESIAN_POINT('',(0.E0,0.E0,-7.325E0));
#423=DIRECTION('',(0.E0,0.E0,-1.E0));
#424=DIRECTION('',(0.E0,-1.E0,0.E0));
#425=AXIS2_PLACEMENT_3D('',#422,#423,#424);
#426=CONICAL_SURFACE('',#425,6.22E0,4.5E1);
#428=ORIENTED_EDGE('',*,*,#427,.T.);
#429=ORIENTED_EDGE('',*,*,#414,.T.);
#431=ORIENTED_EDGE('',*,*,#430,.F.);
#433=ORIENTED_EDGE('',*,*,#432,.F.);
#434=EDGE_LOOP('',(#428,#429,#431,#433));
#435=FACE_OUTER_BOUND('',#434,.F.);
#436=ADVANCED_FACE('',(#435),#426,.F.);
#437=CARTESIAN_POINT('',(0.E0,0.E0,-7.325E0));
#438=DIRECTION('',(0.E0,0.E0,-1.E0));
#439=DIRECTION('',(0.E0,-1.E0,0.E0));
#440=AXIS2_PLACEMENT_3D('',#437,#438,#439);
#441=CONICAL_SURFACE('',#440,6.22E0,4.5E1);
#442=ORIENTED_EDGE('',*,*,#427,.F.);
#444=ORIENTED_EDGE('',*,*,#443,.T.);
#445=ORIENTED_EDGE('',*,*,#430,.T.);
#446=ORIENTED_EDGE('',*,*,#324,.F.);
#447=EDGE_LOOP('',(#442,#444,#445,#446));
#448=FACE_OUTER_BOUND('',#447,.F.);
#449=ADVANCED_FACE('',(#448),#441,.F.);
#450=CARTESIAN_POINT('',(0.E0,0.E0,-7.5E0));
#451=DIRECTION('',(0.E0,0.E0,-1.E0));
#452=DIRECTION('',(0.E0,-1.E0,0.E0));
#453=AXIS2_PLACEMENT_3D('',#450,#451,#452);
#454=PLANE('',#453);
#456=ORIENTED_EDGE('',*,*,#455,.F.);
#458=ORIENTED_EDGE('',*,*,#457,.T.);
#459=EDGE_LOOP('',(#456,#458));
#460=FACE_OUTER_BOUND('',#459,.F.);
#461=ORIENTED_EDGE('',*,*,#443,.F.);
#462=ORIENTED_EDGE('',*,*,#432,.T.);
#463=EDGE_LOOP('',(#461,#462));
#464=FACE_BOUND('',#463,.F.);
#465=ADVANCED_FACE('',(#460,#464),#454,.T.);
#466=CARTESIAN_POINT('',(0.E0,0.E0,-7.2E0));
#467=DIRECTION('',(0.E0,0.E0,1.E0));
#468=DIRECTION('',(0.E0,1.E0,0.E0));
#469=AXIS2_PLACEMENT_3D('',#466,#467,#468);
#470=CONICAL_SURFACE('',#469,6.890808929720E0,2.E1);
#472=ORIENTED_EDGE('',*,*,#471,.T.);
#473=ORIENTED_EDGE('',*,*,#455,.T.);
#475=ORIENTED_EDGE('',*,*,#474,.F.);
#476=ORIENTED_EDGE('',*,*,#364,.F.);
#477=EDGE_LOOP('',(#472,#473,#475,#476));
#478=FACE_OUTER_BOUND('',#477,.F.);
#479=ADVANCED_FACE('',(#478),#470,.T.);
#480=CARTESIAN_POINT('',(0.E0,0.E0,-7.2E0));
#481=DIRECTION('',(0.E0,0.E0,1.E0));
#482=DIRECTION('',(0.E0,1.E0,0.E0));
#483=AXIS2_PLACEMENT_3D('',#480,#481,#482);
#484=CONICAL_SURFACE('',#483,6.890808929720E0,2.E1);
#485=ORIENTED_EDGE('',*,*,#471,.F.);
#486=ORIENTED_EDGE('',*,*,#382,.T.);
#487=ORIENTED_EDGE('',*,*,#474,.T.);
#488=ORIENTED_EDGE('',*,*,#457,.F.);
#489=EDGE_LOOP('',(#485,#486,#487,#488));
#490=FACE_OUTER_BOUND('',#489,.F.);
#491=ADVANCED_FACE('',(#490),#484,.T.);
#492=CARTESIAN_POINT('',(0.E0,0.E0,7.2E0));
#493=DIRECTION('',(0.E0,0.E0,-1.E0));
#494=DIRECTION('',(0.E0,-1.E0,0.E0));
#495=AXIS2_PLACEMENT_3D('',#492,#493,#494);
#496=CONICAL_SURFACE('',#495,6.890808929720E0,2.E1);
#498=ORIENTED_EDGE('',*,*,#497,.F.);
#500=ORIENTED_EDGE('',*,*,#499,.T.);
#502=ORIENTED_EDGE('',*,*,#501,.T.);
#503=ORIENTED_EDGE('',*,*,#385,.F.);
#504=EDGE_LOOP('',(#498,#500,#502,#503));
#505=FACE_OUTER_BOUND('',#504,.F.);
#506=ADVANCED_FACE('',(#505),#496,.T.);
#507=CARTESIAN_POINT('',(0.E0,0.E0,7.2E0));
#508=DIRECTION('',(0.E0,0.E0,-1.E0));
#509=DIRECTION('',(0.E0,-1.E0,0.E0));
#510=AXIS2_PLACEMENT_3D('',#507,#508,#509);
#511=CONICAL_SURFACE('',#510,6.890808929720E0,2.E1);
#512=ORIENTED_EDGE('',*,*,#497,.T.);
#513=ORIENTED_EDGE('',*,*,#360,.T.);
#514=ORIENTED_EDGE('',*,*,#501,.F.);
#516=ORIENTED_EDGE('',*,*,#515,.F.);
#517=EDGE_LOOP('',(#512,#513,#514,#516));
#518=FACE_OUTER_BOUND('',#517,.F.);
#519=ADVANCED_FACE('',(#518),#511,.T.);
#520=CARTESIAN_POINT('',(0.E0,0.E0,7.5E0));
#521=DIRECTION('',(0.E0,0.E0,-1.E0));
#522=DIRECTION('',(0.E0,-1.E0,0.E0));
#523=AXIS2_PLACEMENT_3D('',#520,#521,#522);
#524=PLANE('',#523);
#525=ORIENTED_EDGE('',*,*,#499,.F.);
#526=ORIENTED_EDGE('',*,*,#515,.T.);
#527=EDGE_LOOP('',(#525,#526));
#528=FACE_OUTER_BOUND('',#527,.F.);
#529=ORIENTED_EDGE('',*,*,#289,.F.);
#530=ORIENTED_EDGE('',*,*,#307,.T.);
#531=EDGE_LOOP('',(#529,#530));
#532=FACE_BOUND('',#531,.F.);
#533=ADVANCED_FACE('',(#528,#532),#524,.F.);
#534=CLOSED_SHELL('',(#297,#311,#332,#351,#372,#390,#405,#421,#436,#449,#465,
#479,#491,#506,#519,#533));
#535=MANIFOLD_SOLID_BREP('',#534);
#537=DIMENSIONAL_EXPONENTS(0.E0,0.E0,0.E0,0.E0,0.E0,0.E0,0.E0);
#539=PLANE_ANGLE_MEASURE_WITH_UNIT(PLANE_ANGLE_MEASURE(1.745329251994E-2),#538);
#540=(CONVERSION_BASED_UNIT('DEGREE',#539)NAMED_UNIT(*)PLANE_ANGLE_UNIT());
#542=UNCERTAINTY_MEASURE_WITH_UNIT(LENGTH_MEASURE(2.483849111736E-3),#536,
'closure',
'Maximum model space distance between geometric entities at asserted connectivities');
#543=(GEOMETRIC_REPRESENTATION_CONTEXT(3)GLOBAL_UNCERTAINTY_ASSIGNED_CONTEXT((
#542))GLOBAL_UNIT_ASSIGNED_CONTEXT((#536,#540,#541))REPRESENTATION_CONTEXT
('ID1','3'));
#545=APPLICATION_CONTEXT(
'CONFIGURATION CONTROLLED 3D DESIGNS OF MECHANICAL PARTS AND ASSEMBLIES');
#546=APPLICATION_PROTOCOL_DEFINITION('international standard',
'config_control_design',1994,#545);
#547=DESIGN_CONTEXT('',#545,'design');
#548=MECHANICAL_CONTEXT('',#545,'mechanical');
#549=PRODUCT('PG__A_2016_10_21','PG__A_2016_10_21','NOT SPECIFIED',(#548));
#550=PRODUCT_DEFINITION_FORMATION_WITH_SPECIFIED_SOURCE('1','LAST_VERSION',#549,
.MADE.);
#554=PRODUCT_CATEGORY('part','');
#555=PRODUCT_RELATED_PRODUCT_CATEGORY('detail','',(#549));
#556=PRODUCT_CATEGORY_RELATIONSHIP('','',#554,#555);
#557=SECURITY_CLASSIFICATION_LEVEL('unclassified');
#558=SECURITY_CLASSIFICATION('','',#557);
#559=CC_DESIGN_SECURITY_CLASSIFICATION(#558,(#550));
#560=APPROVAL_STATUS('approved');
#561=APPROVAL(#560,'');
#562=CC_DESIGN_APPROVAL(#561,(#558,#550,#551));
#563=CALENDAR_DATE(116,5,8);
#564=COORDINATED_UNIVERSAL_TIME_OFFSET(2,0,.AHEAD.);
#565=LOCAL_TIME(11,48,2.9E1,#564);
#566=DATE_AND_TIME(#563,#565);
#567=APPROVAL_DATE_TIME(#566,#561);
#568=DATE_TIME_ROLE('creation_date');
#569=CC_DESIGN_DATE_AND_TIME_ASSIGNMENT(#566,#568,(#551));
#570=DATE_TIME_ROLE('classification_date');
#571=CC_DESIGN_DATE_AND_TIME_ASSIGNMENT(#566,#570,(#558));
#572=PERSON('UNSPECIFIED','UNSPECIFIED',$,$,$,$);
#573=ORGANIZATION('UNSPECIFIED','UNSPECIFIED','UNSPECIFIED');
#574=PERSON_AND_ORGANIZATION(#572,#573);
#575=APPROVAL_ROLE('approver');
#576=APPROVAL_PERSON_ORGANIZATION(#574,#561,#575);
#577=PERSON_AND_ORGANIZATION_ROLE('creator');
#578=CC_DESIGN_PERSON_AND_ORGANIZATION_ASSIGNMENT(#574,#577,(#550,#551));
#579=PERSON_AND_ORGANIZATION_ROLE('design_supplier');
#580=CC_DESIGN_PERSON_AND_ORGANIZATION_ASSIGNMENT(#574,#579,(#550));
#581=PERSON_AND_ORGANIZATION_ROLE('classification_officer');
#582=CC_DESIGN_PERSON_AND_ORGANIZATION_ASSIGNMENT(#574,#581,(#558));
#583=PERSON_AND_ORGANIZATION_ROLE('design_owner');
#584=CC_DESIGN_PERSON_AND_ORGANIZATION_ASSIGNMENT(#574,#583,(#549));
#5=CIRCLE('',#4,6.045E0);
#14=CIRCLE('',#13,6.045E0);
#30=B_SPLINE_CURVE_WITH_KNOTS('',3,(#19,#20,#21,#22,#23,#24,#25,#26,#27,#28,
#29),.UNSPECIFIED.,.F.,.F.,(4,1,1,1,1,1,1,1,4),(0.E0,1.25E-1,2.5E-1,3.75E-1,
5.E-1,6.25E-1,7.5E-1,8.75E-1,1.E0),.UNSPECIFIED.);
#43=CIRCLE('',#42,6.045E0);
#60=B_SPLINE_CURVE_WITH_KNOTS('',3,(#48,#49,#50,#51,#52,#53,#54,#55,#56,#57,#58,
#59),.UNSPECIFIED.,.F.,.F.,(4,1,1,1,1,1,1,1,1,4),(0.E0,1.111111111111E-1,
2.222222222222E-1,3.333333333333E-1,4.444444444444E-1,5.555555555556E-1,
6.666666666667E-1,7.777777777778E-1,8.888888888889E-1,1.E0),.UNSPECIFIED.);
#76=B_SPLINE_CURVE_WITH_KNOTS('',3,(#65,#66,#67,#68,#69,#70,#71,#72,#73,#74,
#75),.UNSPECIFIED.,.F.,.F.,(4,1,1,1,1,1,1,1,4),(0.E0,1.25E-1,2.5E-1,3.75E-1,
5.E-1,6.25E-1,7.5E-1,8.75E-1,1.E0),.UNSPECIFIED.);
#81=CIRCLE('',#80,7.E0);
#93=B_SPLINE_CURVE_WITH_KNOTS('',3,(#82,#83,#84,#85,#86,#87,#88,#89,#90,#91,
#92),.UNSPECIFIED.,.F.,.F.,(4,1,1,1,1,1,1,1,4),(0.E0,1.25E-1,2.5E-1,3.75E-1,
5.E-1,6.25E-1,7.5E-1,8.75E-1,1.E0),.UNSPECIFIED.);
#105=B_SPLINE_CURVE_WITH_KNOTS('',3,(#94,#95,#96,#97,#98,#99,#100,#101,#102,
#103,#104),.UNSPECIFIED.,.F.,.F.,(4,1,1,1,1,1,1,1,4),(0.E0,1.25E-1,2.5E-1,
3.75E-1,5.E-1,6.25E-1,7.5E-1,8.75E-1,1.E0),.UNSPECIFIED.);
#117=B_SPLINE_CURVE_WITH_KNOTS('',3,(#106,#107,#108,#109,#110,#111,#112,#113,
#114,#115,#116),.UNSPECIFIED.,.F.,.F.,(4,1,1,1,1,1,1,1,4),(0.E0,1.25E-1,2.5E-1,
3.75E-1,5.E-1,6.25E-1,7.5E-1,8.75E-1,1.E0),.UNSPECIFIED.);
#130=CIRCLE('',#129,7.E0);
#150=B_SPLINE_CURVE_WITH_KNOTS('',3,(#139,#140,#141,#142,#143,#144,#145,#146,
#147,#148,#149),.UNSPECIFIED.,.F.,.F.,(4,1,1,1,1,1,1,1,4),(0.E0,1.25E-1,2.5E-1,
3.75E-1,5.E-1,6.25E-1,7.5E-1,8.75E-1,1.E0),.UNSPECIFIED.);
#162=B_SPLINE_CURVE_WITH_KNOTS('',3,(#151,#152,#153,#154,#155,#156,#157,#158,
#159,#160,#161),.UNSPECIFIED.,.F.,.F.,(4,1,1,1,1,1,1,1,4),(0.E0,1.25E-1,2.5E-1,
3.75E-1,5.E-1,6.25E-1,7.5E-1,8.75E-1,1.E0),.UNSPECIFIED.);
#167=CIRCLE('',#166,6.045E0);
#172=CIRCLE('',#171,6.395E0);
#181=CIRCLE('',#180,6.395E0);
#190=CIRCLE('',#189,6.781617859440E0);
#195=CIRCLE('',#194,6.781617859440E0);
#200=CIRCLE('',#199,7.E0);
#209=CIRCLE('',#208,7.E0);
#222=CIRCLE('',#221,6.781617859440E0);
#231=CIRCLE('',#230,6.781617859440E0);
#236=CIRCLE('',#235,6.395E0);
#241=CIRCLE('',#240,6.395E0);
#287=EDGE_CURVE('',#244,#245,#9,.T.);
#289=EDGE_CURVE('',#245,#261,#236,.T.);
#291=EDGE_CURVE('',#260,#261,#18,.T.);
#293=EDGE_CURVE('',#244,#260,#5,.T.);
#304=EDGE_CURVE('',#244,#260,#14,.T.);
#307=EDGE_CURVE('',#245,#261,#241,.T.);
#317=EDGE_CURVE('',#278,#281,#30,.T.);
#319=EDGE_CURVE('',#278,#260,#34,.T.);
#322=EDGE_CURVE('',#257,#244,#38,.T.);
#324=EDGE_CURVE('',#257,#273,#43,.T.);
#326=EDGE_CURVE('',#273,#279,#47,.T.);
#328=EDGE_CURVE('',#281,#279,#60,.T.);
#338=EDGE_CURVE('',#274,#275,#76,.T.);
#340=EDGE_CURVE('',#275,#277,#138,.T.);
#342=EDGE_CURVE('',#277,#278,#150,.T.);
#345=EDGE_CURVE('',#280,#281,#64,.T.);
#347=EDGE_CURVE('',#280,#274,#105,.T.);
#358=EDGE_CURVE('',#265,#274,#134,.T.);
#360=EDGE_CURVE('',#249,#265,#81,.T.);
#362=EDGE_CURVE('',#249,#251,#125,.T.);
#364=EDGE_CURVE('',#251,#268,#200,.T.);
#366=EDGE_CURVE('',#276,#268,#121,.T.);
#368=EDGE_CURVE('',#275,#276,#93,.T.);
#379=EDGE_CURVE('',#276,#280,#117,.T.);
#382=EDGE_CURVE('',#251,#268,#209,.T.);
#385=EDGE_CURVE('',#249,#265,#130,.T.);
#400=EDGE_CURVE('',#279,#277,#162,.T.);
#414=EDGE_CURVE('',#257,#273,#167,.T.);
#427=EDGE_CURVE('',#256,#257,#176,.T.);
#430=EDGE_CURVE('',#272,#273,#185,.T.);
#432=EDGE_CURVE('',#256,#272,#172,.T.);
#443=EDGE_CURVE('',#256,#272,#181,.T.);
#455=EDGE_CURVE('',#253,#269,#190,.T.);
#457=EDGE_CURVE('',#253,#269,#195,.T.);
#471=EDGE_CURVE('',#251,#253,#204,.T.);
#474=EDGE_CURVE('',#268,#269,#213,.T.);
#497=EDGE_CURVE('',#248,#249,#217,.T.);
#499=EDGE_CURVE('',#248,#264,#222,.T.);
#501=EDGE_CURVE('',#264,#265,#226,.T.);
#515=EDGE_CURVE('',#248,#264,#231,.T.);
#536=(LENGTH_UNIT()NAMED_UNIT(*)SI_UNIT(.MILLI.,.METRE.));
#538=(NAMED_UNIT(*)PLANE_ANGLE_UNIT()SI_UNIT($,.RADIAN.));
#541=(NAMED_UNIT(*)SI_UNIT($,.STERADIAN.)SOLID_ANGLE_UNIT());
#544=ADVANCED_BREP_SHAPE_REPRESENTATION('',(#535),#543);
#551=PRODUCT_DEFINITION('design','',#550,#547);
#552=PRODUCT_DEFINITION_SHAPE('','SHAPE FOR PG__A_2016_10_21.',#551);
#553=SHAPE_DEFINITION_REPRESENTATION(#552,#544);
ENDSEC;
END-ISO-10303-21;
