ISO-10303-21;
HEADER;
FILE_DESCRIPTION((''),'2;1');
FILE_NAME('PG__A_2016_10_21','2016-08-05T',('deusss58'),(''),
'PRO/ENGINEER BY PARAMETRIC TECHNOLOGY CORPORATION, 2014430',
'PRO/ENGINEER BY PARAMETRIC TECHNOLOGY CORPORATION, 2014430','');
FILE_SCHEMA(('CONFIG_CONTROL_DESIGN'));
ENDSEC;
DATA;
#1=CARTESIAN_POINT('',(0.E0,0.E0,9.65E0));
#2=DIRECTION('',(0.E0,0.E0,-1.E0));
#3=DIRECTION('',(0.E0,-1.E0,0.E0));
#4=AXIS2_PLACEMENT_3D('',#1,#2,#3);
#6=DIRECTION('',(0.E0,-7.071067811865E-1,7.071067811865E-1));
#7=VECTOR('',#6,4.949747468306E-1);
#8=CARTESIAN_POINT('',(0.E0,-6.045E0,9.65E0));
#9=LINE('',#8,#7);
#10=CARTESIAN_POINT('',(0.E0,0.E0,9.65E0));
#11=DIRECTION('',(0.E0,0.E0,1.E0));
#12=DIRECTION('',(0.E0,-1.E0,0.E0));
#13=AXIS2_PLACEMENT_3D('',#10,#11,#12);
#15=DIRECTION('',(0.E0,7.071067811865E-1,7.071067811865E-1));
#16=VECTOR('',#15,4.949747468306E-1);
#17=CARTESIAN_POINT('',(0.E0,6.045E0,9.65E0));
#18=LINE('',#17,#16);
#19=CARTESIAN_POINT('',(0.E0,6.045E0,1.5E0));
#20=CARTESIAN_POINT('',(9.648812795139E-2,6.045E0,1.5E0));
#21=CARTESIAN_POINT('',(2.875193877067E-1,6.040539139855E0,1.482220366464E0));
#22=CARTESIAN_POINT('',(5.806511297815E-1,6.019249626144E0,1.394058144385E0));
#23=CARTESIAN_POINT('',(8.405485828114E-1,5.987943371188E0,1.253758516808E0));
#24=CARTESIAN_POINT('',(1.067630639089E0,5.951226669012E0,1.067212306672E0));
#25=CARTESIAN_POINT('',(1.254351994018E0,5.914212116088E0,8.398908486861E-1));
#26=CARTESIAN_POINT('',(1.394289380959E0,5.882382073137E0,5.791860170228E-1));
#27=CARTESIAN_POINT('',(1.480699292791E0,5.860934702291E0,2.940439567541E-1));
#28=CARTESIAN_POINT('',(1.5E0,5.855939292718E0,9.942289589571E-2));
#29=CARTESIAN_POINT('',(1.5E0,5.855939292718E0,0.E0));
#31=DIRECTION('',(0.E0,0.E0,1.E0));
#32=VECTOR('',#31,8.15E0);
#33=CARTESIAN_POINT('',(0.E0,6.045E0,1.5E0));
#34=LINE('',#33,#32);
#35=DIRECTION('',(0.E0,0.E0,1.E0));
#36=VECTOR('',#35,1.93E1);
#37=CARTESIAN_POINT('',(0.E0,-6.045E0,-9.65E0));
#38=LINE('',#37,#36);
#39=CARTESIAN_POINT('',(0.E0,0.E0,-9.65E0));
#40=DIRECTION('',(0.E0,0.E0,1.E0));
#41=DIRECTION('',(0.E0,-1.E0,0.E0));
#42=AXIS2_PLACEMENT_3D('',#39,#40,#41);
#44=DIRECTION('',(0.E0,0.E0,1.E0));
#45=VECTOR('',#44,8.15E0);
#46=CARTESIAN_POINT('',(0.E0,6.045E0,-9.65E0));
#47=LINE('',#46,#45);
#48=CARTESIAN_POINT('',(1.5E0,5.855939292718E0,0.E0));
#49=CARTESIAN_POINT('',(1.5E0,5.855939292718E0,-9.938094473186E-2));
#50=CARTESIAN_POINT('',(1.480710057436E0,5.860931575462E0,-2.939234540730E-1));
#51=CARTESIAN_POINT('',(1.394407507055E0,5.882353925046E0,-5.788880203670E-1));
#52=CARTESIAN_POINT('',(1.254541220826E0,5.914169494653E0,-8.395829424112E-1));
#53=CARTESIAN_POINT('',(1.068026289169E0,5.951157492791E0,-1.066842899029E0));
#54=CARTESIAN_POINT('',(8.404105215664E-1,5.987971410925E0,-1.253909116984E0));
#55=CARTESIAN_POINT('',(5.801961298591E-1,6.019291944051E0,-1.394234994208E0));
#56=CARTESIAN_POINT('',(2.874099225652E-1,6.040539366323E0,-1.482220363686E0));
#57=CARTESIAN_POINT('',(9.644545042412E-2,6.045E0,-1.5E0));
#58=CARTESIAN_POINT('',(0.E0,6.045E0,-1.5E0));
#60=DIRECTION('',(0.E0,-1.E0,0.E0));
#61=VECTOR('',#60,9.814578728706E-1);
#62=CARTESIAN_POINT('',(1.5E0,6.837397165589E0,0.E0));
#63=LINE('',#62,#61);
#64=CARTESIAN_POINT('',(0.E0,7.E0,1.5E0));
#65=CARTESIAN_POINT('',(-9.622649473476E-2,7.E0,1.5E0));
#66=CARTESIAN_POINT('',(-2.868269169968E-1,6.996168176920E0,1.482317206638E0));
#67=CARTESIAN_POINT('',(-5.796806025611E-1,6.977852414750E0,1.394460823386E0));
#68=CARTESIAN_POINT('',(-8.400663791849E-1,6.950847031766E0,1.254148394946E0));
#69=CARTESIAN_POINT('',(-1.067840931551E0,6.919143975039E0,1.067051563804E0));
#70=CARTESIAN_POINT('',(-1.254600622059E0,6.887317254875E0,8.395360104202E-1));
#71=CARTESIAN_POINT('',(-1.394534800678E0,6.860002862063E0,5.785986764824E-1));
#72=CARTESIAN_POINT('',(-1.480754568430E0,6.841662187765E0,2.936497358246E-1));
#73=CARTESIAN_POINT('',(-1.5E0,6.837397165589E0,9.926384388318E-2));
#74=CARTESIAN_POINT('',(-1.5E0,6.837397165589E0,0.E0));
#76=CARTESIAN_POINT('',(0.E0,0.E0,9.4E0));
#77=DIRECTION('',(0.E0,0.E0,-1.E0));
#78=DIRECTION('',(0.E0,-1.E0,0.E0));
#79=AXIS2_PLACEMENT_3D('',#76,#77,#78);
#81=CARTESIAN_POINT('',(-1.5E0,6.837397165589E0,0.E0));
#82=CARTESIAN_POINT('',(-1.5E0,6.837397165589E0,-9.929210426273E-2));
#83=CARTESIAN_POINT('',(-1.480748626965E0,6.841663777235E0,-2.937284273452E-1));
#84=CARTESIAN_POINT('',(-1.394452433916E0,6.860019475733E0,-5.787995829718E-1));
#85=CARTESIAN_POINT('',(-1.254497429182E0,6.887337777627E0,-8.397111461189E-1));
#86=CARTESIAN_POINT('',(-1.067568595191E0,6.919184182131E0,-1.067297314946E0));
#87=CARTESIAN_POINT('',(-8.403445835339E-1,6.950805877846E0,-1.253905052184E0));
#88=CARTESIAN_POINT('',(-5.802643467682E-1,6.977805763869E0,-1.394234500413E0));
#89=CARTESIAN_POINT('',(-2.870041318201E-1,6.996166146645E0,-1.482308896704E0));
#90=CARTESIAN_POINT('',(-9.629386707094E-2,7.E0,-1.5E0));
#91=CARTESIAN_POINT('',(0.E0,7.E0,-1.5E0));
#93=CARTESIAN_POINT('',(1.5E0,6.837397165589E0,0.E0));
#94=CARTESIAN_POINT('',(1.5E0,6.837397165589E0,9.930222731872E-2));
#95=CARTESIAN_POINT('',(1.480742587717E0,6.841665042573E0,2.937542852150E-1));
#96=CARTESIAN_POINT('',(1.394451746059E0,6.860019738804E0,5.788036167521E-1));
#97=CARTESIAN_POINT('',(1.254475293768E0,6.887341704737E0,8.397437005485E-1));
#98=CARTESIAN_POINT('',(1.067558152078E0,6.919186250136E0,1.067312023483E0));
#99=CARTESIAN_POINT('',(8.402446269443E-1,6.950818802297E0,1.253977583354E0));
#100=CARTESIAN_POINT('',(5.801828362572E-1,6.977811069871E0,1.394259104747E0));
#101=CARTESIAN_POINT('',(2.870506789848E-1,6.996163256829E0,1.482295339569E0));
#102=CARTESIAN_POINT('',(9.631738690734E-2,7.E0,1.5E0));
#103=CARTESIAN_POINT('',(0.E0,7.E0,1.5E0));
#105=CARTESIAN_POINT('',(0.E0,7.E0,-1.5E0));
#106=CARTESIAN_POINT('',(9.625924979148E-2,7.E0,-1.5E0));
#107=CARTESIAN_POINT('',(2.868961272550E-1,6.996164532905E0,-1.482300189136E0));
#108=CARTESIAN_POINT('',(5.796260702812E-1,6.977855416240E0,-1.394474049113E0));
#109=CARTESIAN_POINT('',(8.399837488741E-1,6.950857729362E0,-1.254208464366E0));
#110=CARTESIAN_POINT('',(1.067840264044E0,6.919144502480E0,-1.067056347864E0));
#111=CARTESIAN_POINT('',(1.254586863537E0,6.887319637462E0,-8.395559265405E-1));
#112=CARTESIAN_POINT('',(1.394538138236E0,6.860002282555E0,-5.785925123963E-1));
#113=CARTESIAN_POINT('',(1.480750171964E0,6.841663093461E0,-2.936660622147E-1));
#114=CARTESIAN_POINT('',(1.5E0,6.837397165589E0,-9.927025719627E-2));
#115=CARTESIAN_POINT('',(1.5E0,6.837397165589E0,0.E0));
#117=DIRECTION('',(0.E0,0.E0,-1.E0));
#118=VECTOR('',#117,7.9E0);
#119=CARTESIAN_POINT('',(0.E0,7.E0,-1.5E0));
#120=LINE('',#119,#118);
#121=DIRECTION('',(0.E0,0.E0,-1.E0));
#122=VECTOR('',#121,1.88E1);
#123=CARTESIAN_POINT('',(0.E0,-7.E0,9.4E0));
#124=LINE('',#123,#122);
#125=CARTESIAN_POINT('',(0.E0,0.E0,9.4E0));
#126=DIRECTION('',(0.E0,0.E0,1.E0));
#127=DIRECTION('',(0.E0,-1.E0,0.E0));
#128=AXIS2_PLACEMENT_3D('',#125,#126,#127);
#130=DIRECTION('',(0.E0,0.E0,-1.E0));
#131=VECTOR('',#130,7.9E0);
#132=CARTESIAN_POINT('',(0.E0,7.E0,9.4E0));
#133=LINE('',#132,#131);
#134=DIRECTION('',(0.E0,-1.E0,0.E0));
#135=VECTOR('',#134,9.814578728706E-1);
#136=CARTESIAN_POINT('',(-1.5E0,6.837397165589E0,0.E0));
#137=LINE('',#136,#135);
#138=CARTESIAN_POINT('',(-1.5E0,5.855939292718E0,0.E0));
#139=CARTESIAN_POINT('',(-1.5E0,5.855939292718E0,9.937457624758E-2));
#140=CARTESIAN_POINT('',(-1.480714431546E0,5.860930524436E0,2.939072497753E-1));
#141=CARTESIAN_POINT('',(-1.394404146180E0,5.882354605633E0,5.788942490861E-1));
#142=CARTESIAN_POINT('',(-1.254554843511E0,5.914166751203E0,8.395632575178E-1));
#143=CARTESIAN_POINT('',(-1.068026655826E0,5.951156931563E0,1.066838426617E0));
#144=CARTESIAN_POINT('',(-8.404926218884E-1,5.987959068768E0,1.253849405777E0));
#145=CARTESIAN_POINT('',(-5.802497383626E-1,6.019288544168E0,1.394222081236E0));
#146=CARTESIAN_POINT('',(-2.873410131210E-1,6.040543565879E0,1.482237294913E0));
#147=CARTESIAN_POINT('',(-9.641282342111E-2,6.045E0,1.5E0));
#148=CARTESIAN_POINT('',(0.E0,6.045E0,1.5E0));
#150=CARTESIAN_POINT('',(0.E0,6.045E0,-1.5E0));
#151=CARTESIAN_POINT('',(-9.646468957963E-2,6.045E0,-1.5E0));
#152=CARTESIAN_POINT('',(-2.874730201828E-1,6.040542466461E0,
-1.482233837130E0));
#153=CARTESIAN_POINT('',(-5.807313945059E-1,6.019243583906E0,
-1.394033972155E0));
#154=CARTESIAN_POINT('',(-8.406478088714E-1,5.987928475550E0,
-1.253686499772E0));
#155=CARTESIAN_POINT('',(-1.067640713419E0,5.951224329188E0,-1.067197982913E0));
#156=CARTESIAN_POINT('',(-1.254373931920E0,5.914207587282E0,
-8.398586211590E-1));
#157=CARTESIAN_POINT('',(-1.394290013229E0,5.882381778767E0,
-5.791821429113E-1));
#158=CARTESIAN_POINT('',(-1.480705311210E0,5.860933231016E0,
-2.940182446911E-1));
#159=CARTESIAN_POINT('',(-1.5E0,5.855939292718E0,-9.941282465550E-2));
#160=CARTESIAN_POINT('',(-1.5E0,5.855939292718E0,0.E0));
#162=CARTESIAN_POINT('',(0.E0,0.E0,-9.65E0));
#163=DIRECTION('',(0.E0,0.E0,-1.E0));
#164=DIRECTION('',(0.E0,-1.E0,0.E0));
#165=AXIS2_PLACEMENT_3D('',#162,#163,#164);
#167=CARTESIAN_POINT('',(0.E0,0.E0,-1.E1));
#168=DIRECTION('',(0.E0,0.E0,-1.E0));
#169=DIRECTION('',(0.E0,-1.E0,0.E0));
#170=AXIS2_PLACEMENT_3D('',#167,#168,#169);
#172=DIRECTION('',(0.E0,7.071067811865E-1,7.071067811865E-1));
#173=VECTOR('',#172,4.949747468306E-1);
#174=CARTESIAN_POINT('',(0.E0,-6.395E0,-1.E1));
#175=LINE('',#174,#173);
#176=CARTESIAN_POINT('',(0.E0,0.E0,-1.E1));
#177=DIRECTION('',(0.E0,0.E0,1.E0));
#178=DIRECTION('',(0.E0,-1.E0,0.E0));
#179=AXIS2_PLACEMENT_3D('',#176,#177,#178);
#181=DIRECTION('',(0.E0,-7.071067811865E-1,7.071067811865E-1));
#182=VECTOR('',#181,4.949747468306E-1);
#183=CARTESIAN_POINT('',(0.E0,6.395E0,-1.E1));
#184=LINE('',#183,#182);
#185=CARTESIAN_POINT('',(0.E0,0.E0,-1.E1));
#186=DIRECTION('',(0.E0,0.E0,-1.E0));
#187=DIRECTION('',(0.E0,-1.E0,0.E0));
#188=AXIS2_PLACEMENT_3D('',#185,#186,#187);
#190=CARTESIAN_POINT('',(0.E0,0.E0,-1.E1));
#191=DIRECTION('',(0.E0,0.E0,1.E0));
#192=DIRECTION('',(0.E0,-1.E0,0.E0));
#193=AXIS2_PLACEMENT_3D('',#190,#191,#192);
#195=CARTESIAN_POINT('',(0.E0,0.E0,-9.4E0));
#196=DIRECTION('',(0.E0,0.E0,-1.E0));
#197=DIRECTION('',(0.E0,-1.E0,0.E0));
#198=AXIS2_PLACEMENT_3D('',#195,#196,#197);
#200=DIRECTION('',(0.E0,3.420201433257E-1,-9.396926207859E-1));
#201=VECTOR('',#200,6.385066634856E-1);
#202=CARTESIAN_POINT('',(0.E0,-7.E0,-9.4E0));
#203=LINE('',#202,#201);
#204=CARTESIAN_POINT('',(0.E0,0.E0,-9.4E0));
#205=DIRECTION('',(0.E0,0.E0,1.E0));
#206=DIRECTION('',(0.E0,-1.E0,0.E0));
#207=AXIS2_PLACEMENT_3D('',#204,#205,#206);
#209=DIRECTION('',(0.E0,-3.420201433257E-1,-9.396926207859E-1));
#210=VECTOR('',#209,6.385066634856E-1);
#211=CARTESIAN_POINT('',(0.E0,7.E0,-9.4E0));
#212=LINE('',#211,#210);
#213=DIRECTION('',(0.E0,-3.420201433257E-1,-9.396926207859E-1));
#214=VECTOR('',#213,6.385066634856E-1);
#215=CARTESIAN_POINT('',(0.E0,-6.781617859440E0,1.E1));
#216=LINE('',#215,#214);
#217=CARTESIAN_POINT('',(0.E0,0.E0,1.E1));
#218=DIRECTION('',(0.E0,0.E0,1.E0));
#219=DIRECTION('',(0.E0,-1.E0,0.E0));
#220=AXIS2_PLACEMENT_3D('',#217,#218,#219);
#222=DIRECTION('',(0.E0,3.420201433257E-1,-9.396926207859E-1));
#223=VECTOR('',#222,6.385066634856E-1);
#224=CARTESIAN_POINT('',(0.E0,6.781617859440E0,1.E1));
#225=LINE('',#224,#223);
#226=CARTESIAN_POINT('',(0.E0,0.E0,1.E1));
#227=DIRECTION('',(0.E0,0.E0,-1.E0));
#228=DIRECTION('',(0.E0,-1.E0,0.E0));
#229=AXIS2_PLACEMENT_3D('',#226,#227,#228);
#231=CARTESIAN_POINT('',(0.E0,0.E0,1.E1));
#232=DIRECTION('',(0.E0,0.E0,-1.E0));
#233=DIRECTION('',(0.E0,-1.E0,0.E0));
#234=AXIS2_PLACEMENT_3D('',#231,#232,#233);
#236=CARTESIAN_POINT('',(0.E0,0.E0,1.E1));
#237=DIRECTION('',(0.E0,0.E0,1.E0));
#238=DIRECTION('',(0.E0,-1.E0,0.E0));
#239=AXIS2_PLACEMENT_3D('',#236,#237,#238);
#241=CARTESIAN_POINT('',(0.E0,-6.045E0,9.65E0));
#242=CARTESIAN_POINT('',(0.E0,-6.395E0,1.E1));
#243=VERTEX_POINT('',#241);
#244=VERTEX_POINT('',#242);
#245=CARTESIAN_POINT('',(0.E0,-6.781617859440E0,1.E1));
#246=CARTESIAN_POINT('',(0.E0,-7.E0,9.4E0));
#247=VERTEX_POINT('',#245);
#248=VERTEX_POINT('',#246);
#249=CARTESIAN_POINT('',(0.E0,-7.E0,-9.4E0));
#250=VERTEX_POINT('',#249);
#251=CARTESIAN_POINT('',(0.E0,-6.781617859440E0,-1.E1));
#252=VERTEX_POINT('',#251);
#253=CARTESIAN_POINT('',(0.E0,-6.395E0,-1.E1));
#254=CARTESIAN_POINT('',(0.E0,-6.045E0,-9.65E0));
#255=VERTEX_POINT('',#253);
#256=VERTEX_POINT('',#254);
#257=CARTESIAN_POINT('',(0.E0,6.045E0,9.65E0));
#258=CARTESIAN_POINT('',(0.E0,6.395E0,1.E1));
#259=VERTEX_POINT('',#257);
#260=VERTEX_POINT('',#258);
#261=CARTESIAN_POINT('',(0.E0,6.781617859440E0,1.E1));
#262=CARTESIAN_POINT('',(0.E0,7.E0,9.4E0));
#263=VERTEX_POINT('',#261);
#264=VERTEX_POINT('',#262);
#265=CARTESIAN_POINT('',(0.E0,7.E0,-9.4E0));
#266=CARTESIAN_POINT('',(0.E0,6.781617859440E0,-1.E1));
#267=VERTEX_POINT('',#265);
#268=VERTEX_POINT('',#266);
#269=CARTESIAN_POINT('',(0.E0,6.395E0,-1.E1));
#270=CARTESIAN_POINT('',(0.E0,6.045E0,-9.65E0));
#271=VERTEX_POINT('',#269);
#272=VERTEX_POINT('',#270);
#273=VERTEX_POINT('',#64);
#274=VERTEX_POINT('',#74);
#275=VERTEX_POINT('',#91);
#276=VERTEX_POINT('',#138);
#277=VERTEX_POINT('',#148);
#278=VERTEX_POINT('',#150);
#279=VERTEX_POINT('',#93);
#280=VERTEX_POINT('',#29);
#281=CARTESIAN_POINT('',(0.E0,0.E0,9.825E0));
#282=DIRECTION('',(0.E0,0.E0,1.E0));
#283=DIRECTION('',(0.E0,1.E0,0.E0));
#284=AXIS2_PLACEMENT_3D('',#281,#282,#283);
#285=CONICAL_SURFACE('',#284,6.22E0,4.5E1);
#287=ORIENTED_EDGE('',*,*,#286,.T.);
#289=ORIENTED_EDGE('',*,*,#288,.T.);
#291=ORIENTED_EDGE('',*,*,#290,.F.);
#293=ORIENTED_EDGE('',*,*,#292,.F.);
#294=EDGE_LOOP('',(#287,#289,#291,#293));
#295=FACE_OUTER_BOUND('',#294,.F.);
#296=ADVANCED_FACE('',(#295),#285,.F.);
#297=CARTESIAN_POINT('',(0.E0,0.E0,9.825E0));
#298=DIRECTION('',(0.E0,0.E0,1.E0));
#299=DIRECTION('',(0.E0,1.E0,0.E0));
#300=AXIS2_PLACEMENT_3D('',#297,#298,#299);
#301=CONICAL_SURFACE('',#300,6.22E0,4.5E1);
#302=ORIENTED_EDGE('',*,*,#286,.F.);
#304=ORIENTED_EDGE('',*,*,#303,.T.);
#305=ORIENTED_EDGE('',*,*,#290,.T.);
#307=ORIENTED_EDGE('',*,*,#306,.F.);
#308=EDGE_LOOP('',(#302,#304,#305,#307));
#309=FACE_OUTER_BOUND('',#308,.F.);
#310=ADVANCED_FACE('',(#309),#301,.F.);
#311=CARTESIAN_POINT('',(0.E0,0.E0,1.1E1));
#312=DIRECTION('',(0.E0,0.E0,-1.E0));
#313=DIRECTION('',(0.E0,-1.E0,0.E0));
#314=AXIS2_PLACEMENT_3D('',#311,#312,#313);
#315=CYLINDRICAL_SURFACE('',#314,6.045E0);
#317=ORIENTED_EDGE('',*,*,#316,.F.);
#319=ORIENTED_EDGE('',*,*,#318,.T.);
#320=ORIENTED_EDGE('',*,*,#303,.F.);
#322=ORIENTED_EDGE('',*,*,#321,.F.);
#324=ORIENTED_EDGE('',*,*,#323,.T.);
#326=ORIENTED_EDGE('',*,*,#325,.T.);
#328=ORIENTED_EDGE('',*,*,#327,.F.);
#329=EDGE_LOOP('',(#317,#319,#320,#322,#324,#326,#328));
#330=FACE_OUTER_BOUND('',#329,.F.);
#331=ADVANCED_FACE('',(#330),#315,.F.);
#332=CARTESIAN_POINT('',(0.E0,7.E0,0.E0));
#333=DIRECTION('',(0.E0,-1.E0,0.E0));
#334=DIRECTION('',(1.E0,0.E0,0.E0));
#335=AXIS2_PLACEMENT_3D('',#332,#333,#334);
#336=CYLINDRICAL_SURFACE('',#335,1.5E0);
#338=ORIENTED_EDGE('',*,*,#337,.T.);
#340=ORIENTED_EDGE('',*,*,#339,.T.);
#342=ORIENTED_EDGE('',*,*,#341,.T.);
#343=ORIENTED_EDGE('',*,*,#316,.T.);
#345=ORIENTED_EDGE('',*,*,#344,.F.);
#347=ORIENTED_EDGE('',*,*,#346,.T.);
#348=EDGE_LOOP('',(#338,#340,#342,#343,#345,#347));
#349=FACE_OUTER_BOUND('',#348,.F.);
#350=ADVANCED_FACE('',(#349),#336,.F.);
#351=CARTESIAN_POINT('',(0.E0,0.E0,1.1E1));
#352=DIRECTION('',(0.E0,0.E0,-1.E0));
#353=DIRECTION('',(0.E0,-1.E0,0.E0));
#354=AXIS2_PLACEMENT_3D('',#351,#352,#353);
#355=CYLINDRICAL_SURFACE('',#354,7.E0);
#356=ORIENTED_EDGE('',*,*,#337,.F.);
#358=ORIENTED_EDGE('',*,*,#357,.F.);
#360=ORIENTED_EDGE('',*,*,#359,.F.);
#362=ORIENTED_EDGE('',*,*,#361,.T.);
#364=ORIENTED_EDGE('',*,*,#363,.T.);
#366=ORIENTED_EDGE('',*,*,#365,.F.);
#368=ORIENTED_EDGE('',*,*,#367,.F.);
#369=EDGE_LOOP('',(#356,#358,#360,#362,#364,#366,#368));
#370=FACE_OUTER_BOUND('',#369,.F.);
#371=ADVANCED_FACE('',(#370),#355,.T.);
#372=CARTESIAN_POINT('',(0.E0,0.E0,1.1E1));
#373=DIRECTION('',(0.E0,0.E0,-1.E0));
#374=DIRECTION('',(0.E0,-1.E0,0.E0));
#375=AXIS2_PLACEMENT_3D('',#372,#373,#374);
#376=CYLINDRICAL_SURFACE('',#375,7.E0);
#377=ORIENTED_EDGE('',*,*,#346,.F.);
#379=ORIENTED_EDGE('',*,*,#378,.F.);
#380=ORIENTED_EDGE('',*,*,#365,.T.);
#382=ORIENTED_EDGE('',*,*,#381,.F.);
#383=ORIENTED_EDGE('',*,*,#361,.F.);
#385=ORIENTED_EDGE('',*,*,#384,.T.);
#386=ORIENTED_EDGE('',*,*,#357,.T.);
#387=EDGE_LOOP('',(#377,#379,#380,#382,#383,#385,#386));
#388=FACE_OUTER_BOUND('',#387,.F.);
#389=ADVANCED_FACE('',(#388),#376,.T.);
#390=CARTESIAN_POINT('',(0.E0,7.E0,0.E0));
#391=DIRECTION('',(0.E0,-1.E0,0.E0));
#392=DIRECTION('',(1.E0,0.E0,0.E0));
#393=AXIS2_PLACEMENT_3D('',#390,#391,#392);
#394=CYLINDRICAL_SURFACE('',#393,1.5E0);
#395=ORIENTED_EDGE('',*,*,#367,.T.);
#396=ORIENTED_EDGE('',*,*,#378,.T.);
#397=ORIENTED_EDGE('',*,*,#344,.T.);
#398=ORIENTED_EDGE('',*,*,#327,.T.);
#400=ORIENTED_EDGE('',*,*,#399,.T.);
#401=ORIENTED_EDGE('',*,*,#339,.F.);
#402=EDGE_LOOP('',(#395,#396,#397,#398,#400,#401));
#403=FACE_OUTER_BOUND('',#402,.F.);
#404=ADVANCED_FACE('',(#403),#394,.F.);
#405=CARTESIAN_POINT('',(0.E0,0.E0,1.1E1));
#406=DIRECTION('',(0.E0,0.E0,-1.E0));
#407=DIRECTION('',(0.E0,-1.E0,0.E0));
#408=AXIS2_PLACEMENT_3D('',#405,#406,#407);
#409=CYLINDRICAL_SURFACE('',#408,6.045E0);
#410=ORIENTED_EDGE('',*,*,#341,.F.);
#411=ORIENTED_EDGE('',*,*,#399,.F.);
#412=ORIENTED_EDGE('',*,*,#325,.F.);
#414=ORIENTED_EDGE('',*,*,#413,.F.);
#415=ORIENTED_EDGE('',*,*,#321,.T.);
#416=ORIENTED_EDGE('',*,*,#292,.T.);
#417=ORIENTED_EDGE('',*,*,#318,.F.);
#418=EDGE_LOOP('',(#410,#411,#412,#414,#415,#416,#417));
#419=FACE_OUTER_BOUND('',#418,.F.);
#420=ADVANCED_FACE('',(#419),#409,.F.);
#421=CARTESIAN_POINT('',(0.E0,0.E0,-9.825E0));
#422=DIRECTION('',(0.E0,0.E0,-1.E0));
#423=DIRECTION('',(0.E0,-1.E0,0.E0));
#424=AXIS2_PLACEMENT_3D('',#421,#422,#423);
#425=CONICAL_SURFACE('',#424,6.22E0,4.5E1);
#427=ORIENTED_EDGE('',*,*,#426,.T.);
#428=ORIENTED_EDGE('',*,*,#413,.T.);
#430=ORIENTED_EDGE('',*,*,#429,.F.);
#432=ORIENTED_EDGE('',*,*,#431,.F.);
#433=EDGE_LOOP('',(#427,#428,#430,#432));
#434=FACE_OUTER_BOUND('',#433,.F.);
#435=ADVANCED_FACE('',(#434),#425,.F.);
#436=CARTESIAN_POINT('',(0.E0,0.E0,-9.825E0));
#437=DIRECTION('',(0.E0,0.E0,-1.E0));
#438=DIRECTION('',(0.E0,-1.E0,0.E0));
#439=AXIS2_PLACEMENT_3D('',#436,#437,#438);
#440=CONICAL_SURFACE('',#439,6.22E0,4.5E1);
#441=ORIENTED_EDGE('',*,*,#426,.F.);
#443=ORIENTED_EDGE('',*,*,#442,.T.);
#444=ORIENTED_EDGE('',*,*,#429,.T.);
#445=ORIENTED_EDGE('',*,*,#323,.F.);
#446=EDGE_LOOP('',(#441,#443,#444,#445));
#447=FACE_OUTER_BOUND('',#446,.F.);
#448=ADVANCED_FACE('',(#447),#440,.F.);
#449=CARTESIAN_POINT('',(0.E0,0.E0,-1.E1));
#450=DIRECTION('',(0.E0,0.E0,-1.E0));
#451=DIRECTION('',(0.E0,-1.E0,0.E0));
#452=AXIS2_PLACEMENT_3D('',#449,#450,#451);
#453=PLANE('',#452);
#455=ORIENTED_EDGE('',*,*,#454,.F.);
#457=ORIENTED_EDGE('',*,*,#456,.T.);
#458=EDGE_LOOP('',(#455,#457));
#459=FACE_OUTER_BOUND('',#458,.F.);
#460=ORIENTED_EDGE('',*,*,#442,.F.);
#461=ORIENTED_EDGE('',*,*,#431,.T.);
#462=EDGE_LOOP('',(#460,#461));
#463=FACE_BOUND('',#462,.F.);
#464=ADVANCED_FACE('',(#459,#463),#453,.T.);
#465=CARTESIAN_POINT('',(0.E0,0.E0,-9.7E0));
#466=DIRECTION('',(0.E0,0.E0,1.E0));
#467=DIRECTION('',(0.E0,1.E0,0.E0));
#468=AXIS2_PLACEMENT_3D('',#465,#466,#467);
#469=CONICAL_SURFACE('',#468,6.890808929720E0,2.E1);
#471=ORIENTED_EDGE('',*,*,#470,.T.);
#472=ORIENTED_EDGE('',*,*,#454,.T.);
#474=ORIENTED_EDGE('',*,*,#473,.F.);
#475=ORIENTED_EDGE('',*,*,#363,.F.);
#476=EDGE_LOOP('',(#471,#472,#474,#475));
#477=FACE_OUTER_BOUND('',#476,.F.);
#478=ADVANCED_FACE('',(#477),#469,.T.);
#479=CARTESIAN_POINT('',(0.E0,0.E0,-9.7E0));
#480=DIRECTION('',(0.E0,0.E0,1.E0));
#481=DIRECTION('',(0.E0,1.E0,0.E0));
#482=AXIS2_PLACEMENT_3D('',#479,#480,#481);
#483=CONICAL_SURFACE('',#482,6.890808929720E0,2.E1);
#484=ORIENTED_EDGE('',*,*,#470,.F.);
#485=ORIENTED_EDGE('',*,*,#381,.T.);
#486=ORIENTED_EDGE('',*,*,#473,.T.);
#487=ORIENTED_EDGE('',*,*,#456,.F.);
#488=EDGE_LOOP('',(#484,#485,#486,#487));
#489=FACE_OUTER_BOUND('',#488,.F.);
#490=ADVANCED_FACE('',(#489),#483,.T.);
#491=CARTESIAN_POINT('',(0.E0,0.E0,9.7E0));
#492=DIRECTION('',(0.E0,0.E0,-1.E0));
#493=DIRECTION('',(0.E0,-1.E0,0.E0));
#494=AXIS2_PLACEMENT_3D('',#491,#492,#493);
#495=CONICAL_SURFACE('',#494,6.890808929720E0,2.E1);
#497=ORIENTED_EDGE('',*,*,#496,.F.);
#499=ORIENTED_EDGE('',*,*,#498,.T.);
#501=ORIENTED_EDGE('',*,*,#500,.T.);
#502=ORIENTED_EDGE('',*,*,#384,.F.);
#503=EDGE_LOOP('',(#497,#499,#501,#502));
#504=FACE_OUTER_BOUND('',#503,.F.);
#505=ADVANCED_FACE('',(#504),#495,.T.);
#506=CARTESIAN_POINT('',(0.E0,0.E0,9.7E0));
#507=DIRECTION('',(0.E0,0.E0,-1.E0));
#508=DIRECTION('',(0.E0,-1.E0,0.E0));
#509=AXIS2_PLACEMENT_3D('',#506,#507,#508);
#510=CONICAL_SURFACE('',#509,6.890808929720E0,2.E1);
#511=ORIENTED_EDGE('',*,*,#496,.T.);
#512=ORIENTED_EDGE('',*,*,#359,.T.);
#513=ORIENTED_EDGE('',*,*,#500,.F.);
#515=ORIENTED_EDGE('',*,*,#514,.F.);
#516=EDGE_LOOP('',(#511,#512,#513,#515));
#517=FACE_OUTER_BOUND('',#516,.F.);
#518=ADVANCED_FACE('',(#517),#510,.T.);
#519=CARTESIAN_POINT('',(0.E0,0.E0,1.E1));
#520=DIRECTION('',(0.E0,0.E0,-1.E0));
#521=DIRECTION('',(0.E0,-1.E0,0.E0));
#522=AXIS2_PLACEMENT_3D('',#519,#520,#521);
#523=PLANE('',#522);
#524=ORIENTED_EDGE('',*,*,#498,.F.);
#525=ORIENTED_EDGE('',*,*,#514,.T.);
#526=EDGE_LOOP('',(#524,#525));
#527=FACE_OUTER_BOUND('',#526,.F.);
#528=ORIENTED_EDGE('',*,*,#288,.F.);
#529=ORIENTED_EDGE('',*,*,#306,.T.);
#530=EDGE_LOOP('',(#528,#529));
#531=FACE_BOUND('',#530,.F.);
#532=ADVANCED_FACE('',(#527,#531),#523,.F.);
#533=CLOSED_SHELL('',(#296,#310,#331,#350,#371,#389,#404,#420,#435,#448,#464,
#478,#490,#505,#518,#532));
#534=MANIFOLD_SOLID_BREP('',#533);
#536=DIMENSIONAL_EXPONENTS(0.E0,0.E0,0.E0,0.E0,0.E0,0.E0,0.E0);
#538=PLANE_ANGLE_MEASURE_WITH_UNIT(PLANE_ANGLE_MEASURE(1.745329251994E-2),#537);
#539=(CONVERSION_BASED_UNIT('DEGREE',#538)NAMED_UNIT(*)PLANE_ANGLE_UNIT());
#541=UNCERTAINTY_MEASURE_WITH_UNIT(LENGTH_MEASURE(2.814136885916E-3),#535,
'closure',
'Maximum model space distance between geometric entities at asserted connectivities');
#542=(GEOMETRIC_REPRESENTATION_CONTEXT(3)GLOBAL_UNCERTAINTY_ASSIGNED_CONTEXT((
#541))GLOBAL_UNIT_ASSIGNED_CONTEXT((#535,#539,#540))REPRESENTATION_CONTEXT
('ID1','3'));
#544=APPLICATION_CONTEXT(
'CONFIGURATION CONTROLLED 3D DESIGNS OF MECHANICAL PARTS AND ASSEMBLIES');
#545=APPLICATION_PROTOCOL_DEFINITION('international standard',
'config_control_design',1994,#544);
#546=DESIGN_CONTEXT('',#544,'design');
#547=MECHANICAL_CONTEXT('',#544,'mechanical');
#548=PRODUCT('PG__A_2016_10_21','PG__A_2016_10_21','NOT SPECIFIED',(#547));
#549=PRODUCT_DEFINITION_FORMATION_WITH_SPECIFIED_SOURCE('1','LAST_VERSION',#548,
.MADE.);
#553=PRODUCT_CATEGORY('part','');
#554=PRODUCT_RELATED_PRODUCT_CATEGORY('detail','',(#548));
#555=PRODUCT_CATEGORY_RELATIONSHIP('','',#553,#554);
#556=SECURITY_CLASSIFICATION_LEVEL('unclassified');
#557=SECURITY_CLASSIFICATION('','',#556);
#558=CC_DESIGN_SECURITY_CLASSIFICATION(#557,(#549));
#559=APPROVAL_STATUS('approved');
#560=APPROVAL(#559,'');
#561=CC_DESIGN_APPROVAL(#560,(#557,#549,#550));
#562=CALENDAR_DATE(116,5,8);
#563=COORDINATED_UNIVERSAL_TIME_OFFSET(2,0,.AHEAD.);
#564=LOCAL_TIME(11,48,5.7E1,#563);
#565=DATE_AND_TIME(#562,#564);
#566=APPROVAL_DATE_TIME(#565,#560);
#567=DATE_TIME_ROLE('creation_date');
#568=CC_DESIGN_DATE_AND_TIME_ASSIGNMENT(#565,#567,(#550));
#569=DATE_TIME_ROLE('classification_date');
#570=CC_DESIGN_DATE_AND_TIME_ASSIGNMENT(#565,#569,(#557));
#571=PERSON('UNSPECIFIED','UNSPECIFIED',$,$,$,$);
#572=ORGANIZATION('UNSPECIFIED','UNSPECIFIED','UNSPECIFIED');
#573=PERSON_AND_ORGANIZATION(#571,#572);
#574=APPROVAL_ROLE('approver');
#575=APPROVAL_PERSON_ORGANIZATION(#573,#560,#574);
#576=PERSON_AND_ORGANIZATION_ROLE('creator');
#577=CC_DESIGN_PERSON_AND_ORGANIZATION_ASSIGNMENT(#573,#576,(#549,#550));
#578=PERSON_AND_ORGANIZATION_ROLE('design_supplier');
#579=CC_DESIGN_PERSON_AND_ORGANIZATION_ASSIGNMENT(#573,#578,(#549));
#580=PERSON_AND_ORGANIZATION_ROLE('classification_officer');
#581=CC_DESIGN_PERSON_AND_ORGANIZATION_ASSIGNMENT(#573,#580,(#557));
#582=PERSON_AND_ORGANIZATION_ROLE('design_owner');
#583=CC_DESIGN_PERSON_AND_ORGANIZATION_ASSIGNMENT(#573,#582,(#548));
#5=CIRCLE('',#4,6.045E0);
#14=CIRCLE('',#13,6.045E0);
#30=B_SPLINE_CURVE_WITH_KNOTS('',3,(#19,#20,#21,#22,#23,#24,#25,#26,#27,#28,
#29),.UNSPECIFIED.,.F.,.F.,(4,1,1,1,1,1,1,1,4),(0.E0,1.25E-1,2.5E-1,3.75E-1,
5.E-1,6.25E-1,7.5E-1,8.75E-1,1.E0),.UNSPECIFIED.);
#43=CIRCLE('',#42,6.045E0);
#59=B_SPLINE_CURVE_WITH_KNOTS('',3,(#48,#49,#50,#51,#52,#53,#54,#55,#56,#57,
#58),.UNSPECIFIED.,.F.,.F.,(4,1,1,1,1,1,1,1,4),(0.E0,1.25E-1,2.5E-1,3.75E-1,
5.E-1,6.25E-1,7.5E-1,8.75E-1,1.E0),.UNSPECIFIED.);
#75=B_SPLINE_CURVE_WITH_KNOTS('',3,(#64,#65,#66,#67,#68,#69,#70,#71,#72,#73,
#74),.UNSPECIFIED.,.F.,.F.,(4,1,1,1,1,1,1,1,4),(0.E0,1.25E-1,2.5E-1,3.75E-1,
5.E-1,6.25E-1,7.5E-1,8.75E-1,1.E0),.UNSPECIFIED.);
#80=CIRCLE('',#79,7.E0);
#92=B_SPLINE_CURVE_WITH_KNOTS('',3,(#81,#82,#83,#84,#85,#86,#87,#88,#89,#90,
#91),.UNSPECIFIED.,.F.,.F.,(4,1,1,1,1,1,1,1,4),(0.E0,1.25E-1,2.5E-1,3.75E-1,
5.E-1,6.25E-1,7.5E-1,8.75E-1,1.E0),.UNSPECIFIED.);
#104=B_SPLINE_CURVE_WITH_KNOTS('',3,(#93,#94,#95,#96,#97,#98,#99,#100,#101,#102,
#103),.UNSPECIFIED.,.F.,.F.,(4,1,1,1,1,1,1,1,4),(0.E0,1.25E-1,2.5E-1,3.75E-1,
5.E-1,6.25E-1,7.5E-1,8.75E-1,1.E0),.UNSPECIFIED.);
#116=B_SPLINE_CURVE_WITH_KNOTS('',3,(#105,#106,#107,#108,#109,#110,#111,#112,
#113,#114,#115),.UNSPECIFIED.,.F.,.F.,(4,1,1,1,1,1,1,1,4),(0.E0,1.25E-1,2.5E-1,
3.75E-1,5.E-1,6.25E-1,7.5E-1,8.75E-1,1.E0),.UNSPECIFIED.);
#129=CIRCLE('',#128,7.E0);
#149=B_SPLINE_CURVE_WITH_KNOTS('',3,(#138,#139,#140,#141,#142,#143,#144,#145,
#146,#147,#148),.UNSPECIFIED.,.F.,.F.,(4,1,1,1,1,1,1,1,4),(0.E0,1.25E-1,2.5E-1,
3.75E-1,5.E-1,6.25E-1,7.5E-1,8.75E-1,1.E0),.UNSPECIFIED.);
#161=B_SPLINE_CURVE_WITH_KNOTS('',3,(#150,#151,#152,#153,#154,#155,#156,#157,
#158,#159,#160),.UNSPECIFIED.,.F.,.F.,(4,1,1,1,1,1,1,1,4),(0.E0,1.25E-1,2.5E-1,
3.75E-1,5.E-1,6.25E-1,7.5E-1,8.75E-1,1.E0),.UNSPECIFIED.);
#166=CIRCLE('',#165,6.045E0);
#171=CIRCLE('',#170,6.395E0);
#180=CIRCLE('',#179,6.395E0);
#189=CIRCLE('',#188,6.781617859440E0);
#194=CIRCLE('',#193,6.781617859440E0);
#199=CIRCLE('',#198,7.E0);
#208=CIRCLE('',#207,7.E0);
#221=CIRCLE('',#220,6.781617859440E0);
#230=CIRCLE('',#229,6.781617859440E0);
#235=CIRCLE('',#234,6.395E0);
#240=CIRCLE('',#239,6.395E0);
#286=EDGE_CURVE('',#243,#244,#9,.T.);
#288=EDGE_CURVE('',#244,#260,#235,.T.);
#290=EDGE_CURVE('',#259,#260,#18,.T.);
#292=EDGE_CURVE('',#243,#259,#5,.T.);
#303=EDGE_CURVE('',#243,#259,#14,.T.);
#306=EDGE_CURVE('',#244,#260,#240,.T.);
#316=EDGE_CURVE('',#277,#280,#30,.T.);
#318=EDGE_CURVE('',#277,#259,#34,.T.);
#321=EDGE_CURVE('',#256,#243,#38,.T.);
#323=EDGE_CURVE('',#256,#272,#43,.T.);
#325=EDGE_CURVE('',#272,#278,#47,.T.);
#327=EDGE_CURVE('',#280,#278,#59,.T.);
#337=EDGE_CURVE('',#273,#274,#75,.T.);
#339=EDGE_CURVE('',#274,#276,#137,.T.);
#341=EDGE_CURVE('',#276,#277,#149,.T.);
#344=EDGE_CURVE('',#279,#280,#63,.T.);
#346=EDGE_CURVE('',#279,#273,#104,.T.);
#357=EDGE_CURVE('',#264,#273,#133,.T.);
#359=EDGE_CURVE('',#248,#264,#80,.T.);
#361=EDGE_CURVE('',#248,#250,#124,.T.);
#363=EDGE_CURVE('',#250,#267,#199,.T.);
#365=EDGE_CURVE('',#275,#267,#120,.T.);
#367=EDGE_CURVE('',#274,#275,#92,.T.);
#378=EDGE_CURVE('',#275,#279,#116,.T.);
#381=EDGE_CURVE('',#250,#267,#208,.T.);
#384=EDGE_CURVE('',#248,#264,#129,.T.);
#399=EDGE_CURVE('',#278,#276,#161,.T.);
#413=EDGE_CURVE('',#256,#272,#166,.T.);
#426=EDGE_CURVE('',#255,#256,#175,.T.);
#429=EDGE_CURVE('',#271,#272,#184,.T.);
#431=EDGE_CURVE('',#255,#271,#171,.T.);
#442=EDGE_CURVE('',#255,#271,#180,.T.);
#454=EDGE_CURVE('',#252,#268,#189,.T.);
#456=EDGE_CURVE('',#252,#268,#194,.T.);
#470=EDGE_CURVE('',#250,#252,#203,.T.);
#473=EDGE_CURVE('',#267,#268,#212,.T.);
#496=EDGE_CURVE('',#247,#248,#216,.T.);
#498=EDGE_CURVE('',#247,#263,#221,.T.);
#500=EDGE_CURVE('',#263,#264,#225,.T.);
#514=EDGE_CURVE('',#247,#263,#230,.T.);
#535=(LENGTH_UNIT()NAMED_UNIT(*)SI_UNIT(.MILLI.,.METRE.));
#537=(NAMED_UNIT(*)PLANE_ANGLE_UNIT()SI_UNIT($,.RADIAN.));
#540=(NAMED_UNIT(*)SI_UNIT($,.STERADIAN.)SOLID_ANGLE_UNIT());
#543=ADVANCED_BREP_SHAPE_REPRESENTATION('',(#534),#542);
#550=PRODUCT_DEFINITION('design','',#549,#546);
#551=PRODUCT_DEFINITION_SHAPE('','SHAPE FOR PG__A_2016_10_21.',#550);
#552=SHAPE_DEFINITION_REPRESENTATION(#551,#543);
ENDSEC;
END-ISO-10303-21;
