ISO-10303-21;
HEADER;
FILE_DESCRIPTION((''),'2;1');
FILE_NAME('PG__A_2016_10_21','2016-08-09T',('deusss58'),(''),
'PRO/ENGINEER BY PARAMETRIC TECHNOLOGY CORPORATION, 2014430',
'PRO/ENGINEER BY PARAMETRIC TECHNOLOGY CORPORATION, 2014430','');
FILE_SCHEMA(('CONFIG_CONTROL_DESIGN'));
ENDSEC;
DATA;
#1=CARTESIAN_POINT('',(0.E0,0.E0,2.94E1));
#2=DIRECTION('',(0.E0,0.E0,-1.E0));
#3=DIRECTION('',(0.E0,-1.E0,0.E0));
#4=AXIS2_PLACEMENT_3D('',#1,#2,#3);
#6=DIRECTION('',(0.E0,-7.071067811865E-1,7.071067811866E-1));
#7=VECTOR('',#6,8.485281374238E-1);
#8=CARTESIAN_POINT('',(0.E0,-6.5115E1,2.94E1));
#9=LINE('',#8,#7);
#10=CARTESIAN_POINT('',(0.E0,0.E0,2.94E1));
#11=DIRECTION('',(0.E0,0.E0,1.E0));
#12=DIRECTION('',(0.E0,-1.E0,0.E0));
#13=AXIS2_PLACEMENT_3D('',#10,#11,#12);
#15=DIRECTION('',(0.E0,7.071067811865E-1,7.071067811866E-1));
#16=VECTOR('',#15,8.485281374238E-1);
#17=CARTESIAN_POINT('',(-1.445843444969E-14,6.5115E1,2.94E1));
#18=LINE('',#17,#16);
#19=CARTESIAN_POINT('',(3.534636733109E-14,6.5115E1,4.E0));
#20=CARTESIAN_POINT('',(3.022117503614E-1,6.5115E1,4.E0));
#21=CARTESIAN_POINT('',(8.906532179730E-1,6.511091463050E1,3.934525763482E0));
#22=CARTESIAN_POINT('',(1.759678969604E0,6.509293589991E1,3.629759919546E0));
#23=CARTESIAN_POINT('',(2.511560196735E0,6.506780342047E1,3.156316452873E0));
#24=CARTESIAN_POINT('',(3.160413111802E0,6.503908424252E1,2.506873972187E0));
#25=CARTESIAN_POINT('',(3.633688747185E0,6.501390034373E1,1.751124421555E0));
#26=CARTESIAN_POINT('',(3.934547834814E0,6.499611341347E1,8.884066351783E-1));
#27=CARTESIAN_POINT('',(3.999999762038E0,6.499202436223E1,3.014126605878E-1));
#28=CARTESIAN_POINT('',(3.999999762038E0,6.499202436223E1,2.149375956298E-6));
#30=DIRECTION('',(0.E0,0.E0,1.E0));
#31=VECTOR('',#30,2.54E1);
#32=CARTESIAN_POINT('',(3.534636733109E-14,6.5115E1,4.E0));
#33=LINE('',#32,#31);
#34=DIRECTION('',(0.E0,0.E0,1.E0));
#35=VECTOR('',#34,5.88E1);
#36=CARTESIAN_POINT('',(0.E0,-6.5115E1,-2.94E1));
#37=LINE('',#36,#35);
#38=CARTESIAN_POINT('',(0.E0,0.E0,-2.94E1));
#39=DIRECTION('',(0.E0,0.E0,1.E0));
#40=DIRECTION('',(0.E0,-1.E0,0.E0));
#41=AXIS2_PLACEMENT_3D('',#38,#39,#40);
#43=DIRECTION('',(0.E0,0.E0,1.E0));
#44=VECTOR('',#43,2.54E1);
#45=CARTESIAN_POINT('',(-1.445843444969E-14,6.5115E1,-2.94E1));
#46=LINE('',#45,#44);
#47=CARTESIAN_POINT('',(3.999999762038E0,6.499202436223E1,2.149375956298E-6));
#48=CARTESIAN_POINT('',(3.999999762038E0,6.499202436223E1,-3.318622391149E-1));
#49=CARTESIAN_POINT('',(3.918978406327E0,6.499706571895E1,-9.446263121960E-1));
#50=CARTESIAN_POINT('',(3.640635212125E0,6.501341780469E1,-1.713965428757E0));
#51=CARTESIAN_POINT('',(3.276143795463E0,6.503294664645E1,-2.328880096699E0));
#52=CARTESIAN_POINT('',(2.841023570155E0,6.505353412501E1,-2.840605716310E0));
#53=CARTESIAN_POINT('',(2.360091543170E0,6.507286880681E1,-3.249440611965E0));
#54=CARTESIAN_POINT('',(1.827533645855E0,6.509015092510E1,-3.576530259775E0));
#55=CARTESIAN_POINT('',(1.243306915185E0,6.510406844955E1,-3.819535928738E0));
#56=CARTESIAN_POINT('',(6.257754768993E-1,6.511298423050E1,-3.967388846223E0));
#57=CARTESIAN_POINT('',(2.102443460463E-1,6.5115E1,-4.E0));
#58=CARTESIAN_POINT('',(1.713722056950E-13,6.5115E1,-4.E0));
#60=DIRECTION('',(-9.959271035185E-8,-9.999999999996E-1,8.995640487033E-7));
#61=VECTOR('',#60,2.389352886975E0);
#62=CARTESIAN_POINT('',(4.E0,6.738137724921E1,0.E0));
#63=LINE('',#62,#61);
#64=CARTESIAN_POINT('',(3.649695832765E-14,6.75E1,4.E0));
#65=CARTESIAN_POINT('',(-3.019517650517E-1,6.75E1,4.E0));
#66=CARTESIAN_POINT('',(-8.902455232308E-1,6.749607600145E1,3.934829207367E0));
#67=CARTESIAN_POINT('',(-1.763109896660E0,6.747863478969E1,3.628330159997E0));
#68=CARTESIAN_POINT('',(-2.514092913112E0,6.745436948698E1,3.154067478144E0));
#69=CARTESIAN_POINT('',(-3.161401750553E0,6.742672221930E1,2.505683540270E0));
#70=CARTESIAN_POINT('',(-3.634889729069E0,6.740241202666E1,1.748458830828E0));
#71=CARTESIAN_POINT('',(-3.934275556693E0,6.738533600739E1,8.887703869345E-1));
#72=CARTESIAN_POINT('',(-4.E0,6.738137724921E1,3.016114496035E-1));
#73=CARTESIAN_POINT('',(-4.E0,6.738137724921E1,0.E0));
#75=CARTESIAN_POINT('',(0.E0,0.E0,2.88E1));
#76=DIRECTION('',(0.E0,0.E0,-1.E0));
#77=DIRECTION('',(0.E0,-1.E0,0.E0));
#78=AXIS2_PLACEMENT_3D('',#75,#76,#77);
#80=CARTESIAN_POINT('',(-4.E0,6.738137724921E1,0.E0));
#81=CARTESIAN_POINT('',(-4.E0,6.738137724921E1,-3.536502357558E-1));
#82=CARTESIAN_POINT('',(-3.909739162936E0,6.738682340850E1,-1.036112166891E0));
#83=CARTESIAN_POINT('',(-3.507898458348E0,6.740947212305E1,-2.018227789447E0));
#84=CARTESIAN_POINT('',(-2.861130616424E0,6.744068526899E1,-2.859999510967E0));
#85=CARTESIAN_POINT('',(-2.029103893139E0,6.747161514252E1,-3.501367760971E0));
#86=CARTESIAN_POINT('',(-1.037881427803E0,6.749457973798E1,-3.910224359779E0));
#87=CARTESIAN_POINT('',(-3.543519658617E-1,6.75E1,-4.E0));
#88=CARTESIAN_POINT('',(-2.629816300437E-14,6.75E1,-4.E0));
#90=CARTESIAN_POINT('',(4.E0,6.738137724921E1,0.E0));
#91=CARTESIAN_POINT('',(4.E0,6.738137724921E1,3.014276410966E-1));
#92=CARTESIAN_POINT('',(3.934540699901E0,6.738532176700E1,8.884389865357E-1));
#93=CARTESIAN_POINT('',(3.633677984988E0,6.740247829280E1,1.751144571685E0));
#94=CARTESIAN_POINT('',(3.160404218097E0,6.742676983431E1,2.506883890071E0));
#95=CARTESIAN_POINT('',(2.511559578381E0,6.745447203698E1,3.156315696946E0));
#96=CARTESIAN_POINT('',(1.759690240062E0,6.747871530301E1,3.629753102478E0));
#97=CARTESIAN_POINT('',(8.906788475654E-1,6.749605861823E1,3.934519921702E0));
#98=CARTESIAN_POINT('',(3.022242262212E-1,6.75E1,4.E0));
#99=CARTESIAN_POINT('',(3.649695832765E-14,6.75E1,4.E0));
#101=CARTESIAN_POINT('',(-2.629816300437E-14,6.75E1,-4.E0));
#102=CARTESIAN_POINT('',(2.102383854951E-1,6.75E1,-4.E0));
#103=CARTESIAN_POINT('',(6.257581906500E-1,6.749805556855E1,-3.967390806603E0));
#104=CARTESIAN_POINT('',(1.243279455423E0,6.748945522274E1,-3.819544391835E0));
#105=CARTESIAN_POINT('',(1.827502831327E0,6.747603003501E1,-3.576545841664E0));
#106=CARTESIAN_POINT('',(2.360062377075E0,6.745935932197E1,-3.249461664132E0));
#107=CARTESIAN_POINT('',(2.840996039729E0,6.744070896090E1,-2.840633104882E0));
#108=CARTESIAN_POINT('',(3.276122728952E0,6.742085030164E1,-2.328910407050E0));
#109=CARTESIAN_POINT('',(3.640623210409E0,6.740201295511E1,-1.713991615026E0));
#110=CARTESIAN_POINT('',(3.918973547389E0,6.738624017082E1,-9.446500602650E-1));
#111=CARTESIAN_POINT('',(4.E0,6.738137724921E1,-3.318702203150E-1));
#112=CARTESIAN_POINT('',(4.E0,6.738137724921E1,0.E0));
#114=DIRECTION('',(0.E0,0.E0,-1.E0));
#115=VECTOR('',#114,2.48E1);
#116=CARTESIAN_POINT('',(-2.629816300437E-14,6.75E1,-4.E0));
#117=LINE('',#116,#115);
#118=DIRECTION('',(0.E0,0.E0,-1.E0));
#119=VECTOR('',#118,5.76E1);
#120=CARTESIAN_POINT('',(0.E0,-6.75E1,2.88E1));
#121=LINE('',#120,#119);
#122=CARTESIAN_POINT('',(0.E0,0.E0,2.88E1));
#123=DIRECTION('',(0.E0,0.E0,1.E0));
#124=DIRECTION('',(0.E0,-1.E0,0.E0));
#125=AXIS2_PLACEMENT_3D('',#122,#123,#124);
#127=DIRECTION('',(0.E0,0.E0,-1.E0));
#128=VECTOR('',#127,2.48E1);
#129=CARTESIAN_POINT('',(-1.498801083244E-14,6.75E1,2.88E1));
#130=LINE('',#129,#128);
#131=DIRECTION('',(2.445238970192E-9,-1.E0,4.716811142065E-8));
#132=VECTOR('',#131,2.389352929652E0);
#133=CARTESIAN_POINT('',(-4.E0,6.738137724921E1,0.E0));
#134=LINE('',#133,#132);
#135=CARTESIAN_POINT('',(-3.999999994157E0,6.499202431956E1,1.127012655356E-7));
#136=CARTESIAN_POINT('',(-3.999999994157E0,6.499202431956E1,3.015992559667E-1));
#137=CARTESIAN_POINT('',(-3.934281715550E0,6.499612825064E1,8.887417832844E-1));
#138=CARTESIAN_POINT('',(-3.634898892218E0,6.501383172920E1,1.748441910343E0));
#139=CARTESIAN_POINT('',(-3.161409078999E0,6.503903495502E1,2.505675401039E0));
#140=CARTESIAN_POINT('',(-2.514092662294E0,6.506769713892E1,3.154068819306E0));
#141=CARTESIAN_POINT('',(-1.763098463179E0,6.509285243892E1,3.628337015953E0));
#142=CARTESIAN_POINT('',(-8.902201684382E-1,6.511093264621E1,3.934834974881E0));
#143=CARTESIAN_POINT('',(-3.019394269362E-1,6.5115E1,4.E0));
#144=CARTESIAN_POINT('',(3.534636733109E-14,6.5115E1,4.E0));
#146=CARTESIAN_POINT('',(1.713722056950E-13,6.5115E1,-4.E0));
#147=CARTESIAN_POINT('',(-3.543373469456E-1,6.5115E1,-4.E0));
#148=CARTESIAN_POINT('',(-1.037852664829E0,6.510938172992E1,-3.910232419339E0));
#149=CARTESIAN_POINT('',(-2.029096854741E0,6.508557548797E1,-3.501374177814E0));
#150=CARTESIAN_POINT('',(-2.861135441358E0,6.505351071513E1,-2.859995910655E0));
#151=CARTESIAN_POINT('',(-3.507909331643E0,6.502115118492E1,-2.018212609275E0));
#152=CARTESIAN_POINT('',(-3.909748549178E0,6.499767014664E1,-1.036076195699E0));
#153=CARTESIAN_POINT('',(-3.999999994157E0,6.499202431956E1,
-3.536348291863E-1));
#154=CARTESIAN_POINT('',(-3.999999994157E0,6.499202431956E1,1.127012655356E-7));
#156=CARTESIAN_POINT('',(0.E0,0.E0,-2.94E1));
#157=DIRECTION('',(0.E0,0.E0,-1.E0));
#158=DIRECTION('',(0.E0,-1.E0,0.E0));
#159=AXIS2_PLACEMENT_3D('',#156,#157,#158);
#161=CARTESIAN_POINT('',(0.E0,0.E0,-3.E1));
#162=DIRECTION('',(0.E0,0.E0,-1.E0));
#163=DIRECTION('',(0.E0,-1.E0,0.E0));
#164=AXIS2_PLACEMENT_3D('',#161,#162,#163);
#166=DIRECTION('',(0.E0,7.071067811865E-1,7.071067811865E-1));
#167=VECTOR('',#166,8.485281374239E-1);
#168=CARTESIAN_POINT('',(0.E0,-6.5715E1,-3.E1));
#169=LINE('',#168,#167);
#170=CARTESIAN_POINT('',(0.E0,0.E0,-3.E1));
#171=DIRECTION('',(0.E0,0.E0,1.E0));
#172=DIRECTION('',(0.E0,-1.E0,0.E0));
#173=AXIS2_PLACEMENT_3D('',#170,#171,#172);
#175=DIRECTION('',(0.E0,-7.071067811865E-1,7.071067811865E-1));
#176=VECTOR('',#175,8.485281374239E-1);
#177=CARTESIAN_POINT('',(0.E0,6.5715E1,-3.E1));
#178=LINE('',#177,#176);
#179=CARTESIAN_POINT('',(0.E0,0.E0,-3.E1));
#180=DIRECTION('',(0.E0,0.E0,-1.E0));
#181=DIRECTION('',(0.E0,-1.E0,0.E0));
#182=AXIS2_PLACEMENT_3D('',#179,#180,#181);
#184=CARTESIAN_POINT('',(0.E0,0.E0,-3.E1));
#185=DIRECTION('',(0.E0,0.E0,1.E0));
#186=DIRECTION('',(0.E0,-1.E0,0.E0));
#187=AXIS2_PLACEMENT_3D('',#184,#185,#186);
#189=CARTESIAN_POINT('',(0.E0,0.E0,-2.88E1));
#190=DIRECTION('',(0.E0,0.E0,-1.E0));
#191=DIRECTION('',(0.E0,-1.E0,0.E0));
#192=AXIS2_PLACEMENT_3D('',#189,#190,#191);
#194=DIRECTION('',(0.E0,3.420201433257E-1,-9.396926207859E-1));
#195=VECTOR('',#194,1.277013326971E0);
#196=CARTESIAN_POINT('',(0.E0,-6.75E1,-2.88E1));
#197=LINE('',#196,#195);
#198=CARTESIAN_POINT('',(0.E0,0.E0,-2.88E1));
#199=DIRECTION('',(0.E0,0.E0,1.E0));
#200=DIRECTION('',(0.E0,-1.E0,0.E0));
#201=AXIS2_PLACEMENT_3D('',#198,#199,#200);
#203=DIRECTION('',(0.E0,-3.420201433257E-1,-9.396926207859E-1));
#204=VECTOR('',#203,1.277013326971E0);
#205=CARTESIAN_POINT('',(-1.498801083244E-14,6.75E1,-2.88E1));
#206=LINE('',#205,#204);
#207=DIRECTION('',(0.E0,-3.420201433257E-1,-9.396926207859E-1));
#208=VECTOR('',#207,1.277013326971E0);
#209=CARTESIAN_POINT('',(0.E0,-6.706323571888E1,3.E1));
#210=LINE('',#209,#208);
#211=CARTESIAN_POINT('',(0.E0,0.E0,3.E1));
#212=DIRECTION('',(0.E0,0.E0,1.E0));
#213=DIRECTION('',(0.E0,-1.E0,0.E0));
#214=AXIS2_PLACEMENT_3D('',#211,#212,#213);
#216=DIRECTION('',(0.E0,3.420201433257E-1,-9.396926207859E-1));
#217=VECTOR('',#216,1.277013326971E0);
#218=CARTESIAN_POINT('',(0.E0,6.706323571888E1,3.E1));
#219=LINE('',#218,#217);
#220=CARTESIAN_POINT('',(0.E0,0.E0,3.E1));
#221=DIRECTION('',(0.E0,0.E0,-1.E0));
#222=DIRECTION('',(0.E0,-1.E0,0.E0));
#223=AXIS2_PLACEMENT_3D('',#220,#221,#222);
#225=CARTESIAN_POINT('',(0.E0,0.E0,3.E1));
#226=DIRECTION('',(0.E0,0.E0,-1.E0));
#227=DIRECTION('',(0.E0,-1.E0,0.E0));
#228=AXIS2_PLACEMENT_3D('',#225,#226,#227);
#230=CARTESIAN_POINT('',(0.E0,0.E0,3.E1));
#231=DIRECTION('',(0.E0,0.E0,1.E0));
#232=DIRECTION('',(0.E0,-1.E0,0.E0));
#233=AXIS2_PLACEMENT_3D('',#230,#231,#232);
#235=CARTESIAN_POINT('',(0.E0,-6.5115E1,2.94E1));
#236=CARTESIAN_POINT('',(0.E0,-6.5715E1,3.E1));
#237=VERTEX_POINT('',#235);
#238=VERTEX_POINT('',#236);
#239=CARTESIAN_POINT('',(0.E0,-6.706323571888E1,3.E1));
#240=CARTESIAN_POINT('',(0.E0,-6.75E1,2.88E1));
#241=VERTEX_POINT('',#239);
#242=VERTEX_POINT('',#240);
#243=CARTESIAN_POINT('',(0.E0,-6.75E1,-2.88E1));
#244=VERTEX_POINT('',#243);
#245=CARTESIAN_POINT('',(0.E0,-6.706323571888E1,-3.E1));
#246=VERTEX_POINT('',#245);
#247=CARTESIAN_POINT('',(0.E0,-6.5715E1,-3.E1));
#248=CARTESIAN_POINT('',(0.E0,-6.5115E1,-2.94E1));
#249=VERTEX_POINT('',#247);
#250=VERTEX_POINT('',#248);
#251=CARTESIAN_POINT('',(-1.445843444969E-14,6.5115E1,2.94E1));
#252=CARTESIAN_POINT('',(0.E0,6.5715E1,3.E1));
#253=VERTEX_POINT('',#251);
#254=VERTEX_POINT('',#252);
#255=CARTESIAN_POINT('',(0.E0,6.706323571888E1,3.E1));
#256=CARTESIAN_POINT('',(-1.498801083244E-14,6.75E1,2.88E1));
#257=VERTEX_POINT('',#255);
#258=VERTEX_POINT('',#256);
#259=CARTESIAN_POINT('',(-1.498801083244E-14,6.75E1,-2.88E1));
#260=CARTESIAN_POINT('',(0.E0,6.706323571888E1,-3.E1));
#261=VERTEX_POINT('',#259);
#262=VERTEX_POINT('',#260);
#263=CARTESIAN_POINT('',(0.E0,6.5715E1,-3.E1));
#264=CARTESIAN_POINT('',(-1.445843444969E-14,6.5115E1,-2.94E1));
#265=VERTEX_POINT('',#263);
#266=VERTEX_POINT('',#264);
#267=VERTEX_POINT('',#64);
#268=VERTEX_POINT('',#73);
#269=VERTEX_POINT('',#88);
#270=VERTEX_POINT('',#135);
#271=VERTEX_POINT('',#144);
#272=VERTEX_POINT('',#146);
#273=VERTEX_POINT('',#90);
#274=VERTEX_POINT('',#28);
#275=CARTESIAN_POINT('',(0.E0,0.E0,2.97E1));
#276=DIRECTION('',(0.E0,0.E0,1.E0));
#277=DIRECTION('',(0.E0,1.E0,0.E0));
#278=AXIS2_PLACEMENT_3D('',#275,#276,#277);
#279=CONICAL_SURFACE('',#278,6.5415E1,4.5E1);
#281=ORIENTED_EDGE('',*,*,#280,.T.);
#283=ORIENTED_EDGE('',*,*,#282,.T.);
#285=ORIENTED_EDGE('',*,*,#284,.F.);
#287=ORIENTED_EDGE('',*,*,#286,.F.);
#288=EDGE_LOOP('',(#281,#283,#285,#287));
#289=FACE_OUTER_BOUND('',#288,.F.);
#290=ADVANCED_FACE('',(#289),#279,.F.);
#291=CARTESIAN_POINT('',(0.E0,0.E0,2.97E1));
#292=DIRECTION('',(0.E0,0.E0,1.E0));
#293=DIRECTION('',(0.E0,1.E0,0.E0));
#294=AXIS2_PLACEMENT_3D('',#291,#292,#293);
#295=CONICAL_SURFACE('',#294,6.5415E1,4.5E1);
#296=ORIENTED_EDGE('',*,*,#280,.F.);
#298=ORIENTED_EDGE('',*,*,#297,.T.);
#299=ORIENTED_EDGE('',*,*,#284,.T.);
#301=ORIENTED_EDGE('',*,*,#300,.F.);
#302=EDGE_LOOP('',(#296,#298,#299,#301));
#303=FACE_OUTER_BOUND('',#302,.F.);
#304=ADVANCED_FACE('',(#303),#295,.F.);
#305=CARTESIAN_POINT('',(0.E0,0.E0,3.3E1));
#306=DIRECTION('',(0.E0,0.E0,-1.E0));
#307=DIRECTION('',(0.E0,-1.E0,0.E0));
#308=AXIS2_PLACEMENT_3D('',#305,#306,#307);
#309=CYLINDRICAL_SURFACE('',#308,6.5115E1);
#311=ORIENTED_EDGE('',*,*,#310,.F.);
#313=ORIENTED_EDGE('',*,*,#312,.T.);
#314=ORIENTED_EDGE('',*,*,#297,.F.);
#316=ORIENTED_EDGE('',*,*,#315,.F.);
#318=ORIENTED_EDGE('',*,*,#317,.T.);
#320=ORIENTED_EDGE('',*,*,#319,.T.);
#322=ORIENTED_EDGE('',*,*,#321,.F.);
#323=EDGE_LOOP('',(#311,#313,#314,#316,#318,#320,#322));
#324=FACE_OUTER_BOUND('',#323,.F.);
#325=ADVANCED_FACE('',(#324),#309,.F.);
#326=CARTESIAN_POINT('',(0.E0,6.75E1,0.E0));
#327=DIRECTION('',(0.E0,-1.E0,0.E0));
#328=DIRECTION('',(1.E0,0.E0,0.E0));
#329=AXIS2_PLACEMENT_3D('',#326,#327,#328);
#330=CYLINDRICAL_SURFACE('',#329,4.E0);
#332=ORIENTED_EDGE('',*,*,#331,.T.);
#334=ORIENTED_EDGE('',*,*,#333,.T.);
#336=ORIENTED_EDGE('',*,*,#335,.T.);
#337=ORIENTED_EDGE('',*,*,#310,.T.);
#339=ORIENTED_EDGE('',*,*,#338,.F.);
#341=ORIENTED_EDGE('',*,*,#340,.T.);
#342=EDGE_LOOP('',(#332,#334,#336,#337,#339,#341));
#343=FACE_OUTER_BOUND('',#342,.F.);
#344=ADVANCED_FACE('',(#343),#330,.F.);
#345=CARTESIAN_POINT('',(0.E0,0.E0,3.3E1));
#346=DIRECTION('',(0.E0,0.E0,-1.E0));
#347=DIRECTION('',(0.E0,-1.E0,0.E0));
#348=AXIS2_PLACEMENT_3D('',#345,#346,#347);
#349=CYLINDRICAL_SURFACE('',#348,6.75E1);
#350=ORIENTED_EDGE('',*,*,#331,.F.);
#352=ORIENTED_EDGE('',*,*,#351,.F.);
#354=ORIENTED_EDGE('',*,*,#353,.F.);
#356=ORIENTED_EDGE('',*,*,#355,.T.);
#358=ORIENTED_EDGE('',*,*,#357,.T.);
#360=ORIENTED_EDGE('',*,*,#359,.F.);
#362=ORIENTED_EDGE('',*,*,#361,.F.);
#363=EDGE_LOOP('',(#350,#352,#354,#356,#358,#360,#362));
#364=FACE_OUTER_BOUND('',#363,.F.);
#365=ADVANCED_FACE('',(#364),#349,.T.);
#366=CARTESIAN_POINT('',(0.E0,0.E0,3.3E1));
#367=DIRECTION('',(0.E0,0.E0,-1.E0));
#368=DIRECTION('',(0.E0,-1.E0,0.E0));
#369=AXIS2_PLACEMENT_3D('',#366,#367,#368);
#370=CYLINDRICAL_SURFACE('',#369,6.75E1);
#371=ORIENTED_EDGE('',*,*,#340,.F.);
#373=ORIENTED_EDGE('',*,*,#372,.F.);
#374=ORIENTED_EDGE('',*,*,#359,.T.);
#376=ORIENTED_EDGE('',*,*,#375,.F.);
#377=ORIENTED_EDGE('',*,*,#355,.F.);
#379=ORIENTED_EDGE('',*,*,#378,.T.);
#380=ORIENTED_EDGE('',*,*,#351,.T.);
#381=EDGE_LOOP('',(#371,#373,#374,#376,#377,#379,#380));
#382=FACE_OUTER_BOUND('',#381,.F.);
#383=ADVANCED_FACE('',(#382),#370,.T.);
#384=CARTESIAN_POINT('',(0.E0,6.75E1,0.E0));
#385=DIRECTION('',(0.E0,-1.E0,0.E0));
#386=DIRECTION('',(1.E0,0.E0,0.E0));
#387=AXIS2_PLACEMENT_3D('',#384,#385,#386);
#388=CYLINDRICAL_SURFACE('',#387,4.E0);
#389=ORIENTED_EDGE('',*,*,#361,.T.);
#390=ORIENTED_EDGE('',*,*,#372,.T.);
#391=ORIENTED_EDGE('',*,*,#338,.T.);
#392=ORIENTED_EDGE('',*,*,#321,.T.);
#394=ORIENTED_EDGE('',*,*,#393,.T.);
#395=ORIENTED_EDGE('',*,*,#333,.F.);
#396=EDGE_LOOP('',(#389,#390,#391,#392,#394,#395));
#397=FACE_OUTER_BOUND('',#396,.F.);
#398=ADVANCED_FACE('',(#397),#388,.F.);
#399=CARTESIAN_POINT('',(0.E0,0.E0,3.3E1));
#400=DIRECTION('',(0.E0,0.E0,-1.E0));
#401=DIRECTION('',(0.E0,-1.E0,0.E0));
#402=AXIS2_PLACEMENT_3D('',#399,#400,#401);
#403=CYLINDRICAL_SURFACE('',#402,6.5115E1);
#404=ORIENTED_EDGE('',*,*,#335,.F.);
#405=ORIENTED_EDGE('',*,*,#393,.F.);
#406=ORIENTED_EDGE('',*,*,#319,.F.);
#408=ORIENTED_EDGE('',*,*,#407,.F.);
#409=ORIENTED_EDGE('',*,*,#315,.T.);
#410=ORIENTED_EDGE('',*,*,#286,.T.);
#411=ORIENTED_EDGE('',*,*,#312,.F.);
#412=EDGE_LOOP('',(#404,#405,#406,#408,#409,#410,#411));
#413=FACE_OUTER_BOUND('',#412,.F.);
#414=ADVANCED_FACE('',(#413),#403,.F.);
#415=CARTESIAN_POINT('',(0.E0,0.E0,-2.97E1));
#416=DIRECTION('',(0.E0,0.E0,-1.E0));
#417=DIRECTION('',(0.E0,-1.E0,0.E0));
#418=AXIS2_PLACEMENT_3D('',#415,#416,#417);
#419=CONICAL_SURFACE('',#418,6.5415E1,4.5E1);
#421=ORIENTED_EDGE('',*,*,#420,.T.);
#422=ORIENTED_EDGE('',*,*,#407,.T.);
#424=ORIENTED_EDGE('',*,*,#423,.F.);
#426=ORIENTED_EDGE('',*,*,#425,.F.);
#427=EDGE_LOOP('',(#421,#422,#424,#426));
#428=FACE_OUTER_BOUND('',#427,.F.);
#429=ADVANCED_FACE('',(#428),#419,.F.);
#430=CARTESIAN_POINT('',(0.E0,0.E0,-2.97E1));
#431=DIRECTION('',(0.E0,0.E0,-1.E0));
#432=DIRECTION('',(0.E0,-1.E0,0.E0));
#433=AXIS2_PLACEMENT_3D('',#430,#431,#432);
#434=CONICAL_SURFACE('',#433,6.5415E1,4.5E1);
#435=ORIENTED_EDGE('',*,*,#420,.F.);
#437=ORIENTED_EDGE('',*,*,#436,.T.);
#438=ORIENTED_EDGE('',*,*,#423,.T.);
#439=ORIENTED_EDGE('',*,*,#317,.F.);
#440=EDGE_LOOP('',(#435,#437,#438,#439));
#441=FACE_OUTER_BOUND('',#440,.F.);
#442=ADVANCED_FACE('',(#441),#434,.F.);
#443=CARTESIAN_POINT('',(0.E0,0.E0,-3.E1));
#444=DIRECTION('',(0.E0,0.E0,-1.E0));
#445=DIRECTION('',(0.E0,-1.E0,0.E0));
#446=AXIS2_PLACEMENT_3D('',#443,#444,#445);
#447=PLANE('',#446);
#449=ORIENTED_EDGE('',*,*,#448,.F.);
#451=ORIENTED_EDGE('',*,*,#450,.T.);
#452=EDGE_LOOP('',(#449,#451));
#453=FACE_OUTER_BOUND('',#452,.F.);
#454=ORIENTED_EDGE('',*,*,#436,.F.);
#455=ORIENTED_EDGE('',*,*,#425,.T.);
#456=EDGE_LOOP('',(#454,#455));
#457=FACE_BOUND('',#456,.F.);
#458=ADVANCED_FACE('',(#453,#457),#447,.T.);
#459=CARTESIAN_POINT('',(0.E0,0.E0,-2.94E1));
#460=DIRECTION('',(0.E0,0.E0,1.E0));
#461=DIRECTION('',(0.E0,1.E0,0.E0));
#462=AXIS2_PLACEMENT_3D('',#459,#460,#461);
#463=CONICAL_SURFACE('',#462,6.728161785944E1,2.E1);
#465=ORIENTED_EDGE('',*,*,#464,.T.);
#466=ORIENTED_EDGE('',*,*,#448,.T.);
#468=ORIENTED_EDGE('',*,*,#467,.F.);
#469=ORIENTED_EDGE('',*,*,#357,.F.);
#470=EDGE_LOOP('',(#465,#466,#468,#469));
#471=FACE_OUTER_BOUND('',#470,.F.);
#472=ADVANCED_FACE('',(#471),#463,.T.);
#473=CARTESIAN_POINT('',(0.E0,0.E0,-2.94E1));
#474=DIRECTION('',(0.E0,0.E0,1.E0));
#475=DIRECTION('',(0.E0,1.E0,0.E0));
#476=AXIS2_PLACEMENT_3D('',#473,#474,#475);
#477=CONICAL_SURFACE('',#476,6.728161785944E1,2.E1);
#478=ORIENTED_EDGE('',*,*,#464,.F.);
#479=ORIENTED_EDGE('',*,*,#375,.T.);
#480=ORIENTED_EDGE('',*,*,#467,.T.);
#481=ORIENTED_EDGE('',*,*,#450,.F.);
#482=EDGE_LOOP('',(#478,#479,#480,#481));
#483=FACE_OUTER_BOUND('',#482,.F.);
#484=ADVANCED_FACE('',(#483),#477,.T.);
#485=CARTESIAN_POINT('',(0.E0,0.E0,2.94E1));
#486=DIRECTION('',(0.E0,0.E0,-1.E0));
#487=DIRECTION('',(0.E0,-1.E0,0.E0));
#488=AXIS2_PLACEMENT_3D('',#485,#486,#487);
#489=CONICAL_SURFACE('',#488,6.728161785944E1,2.E1);
#491=ORIENTED_EDGE('',*,*,#490,.F.);
#493=ORIENTED_EDGE('',*,*,#492,.T.);
#495=ORIENTED_EDGE('',*,*,#494,.T.);
#496=ORIENTED_EDGE('',*,*,#378,.F.);
#497=EDGE_LOOP('',(#491,#493,#495,#496));
#498=FACE_OUTER_BOUND('',#497,.F.);
#499=ADVANCED_FACE('',(#498),#489,.T.);
#500=CARTESIAN_POINT('',(0.E0,0.E0,2.94E1));
#501=DIRECTION('',(0.E0,0.E0,-1.E0));
#502=DIRECTION('',(0.E0,-1.E0,0.E0));
#503=AXIS2_PLACEMENT_3D('',#500,#501,#502);
#504=CONICAL_SURFACE('',#503,6.728161785944E1,2.E1);
#505=ORIENTED_EDGE('',*,*,#490,.T.);
#506=ORIENTED_EDGE('',*,*,#353,.T.);
#507=ORIENTED_EDGE('',*,*,#494,.F.);
#509=ORIENTED_EDGE('',*,*,#508,.F.);
#510=EDGE_LOOP('',(#505,#506,#507,#509));
#511=FACE_OUTER_BOUND('',#510,.F.);
#512=ADVANCED_FACE('',(#511),#504,.T.);
#513=CARTESIAN_POINT('',(0.E0,0.E0,3.E1));
#514=DIRECTION('',(0.E0,0.E0,-1.E0));
#515=DIRECTION('',(0.E0,-1.E0,0.E0));
#516=AXIS2_PLACEMENT_3D('',#513,#514,#515);
#517=PLANE('',#516);
#518=ORIENTED_EDGE('',*,*,#492,.F.);
#519=ORIENTED_EDGE('',*,*,#508,.T.);
#520=EDGE_LOOP('',(#518,#519));
#521=FACE_OUTER_BOUND('',#520,.F.);
#522=ORIENTED_EDGE('',*,*,#282,.F.);
#523=ORIENTED_EDGE('',*,*,#300,.T.);
#524=EDGE_LOOP('',(#522,#523));
#525=FACE_BOUND('',#524,.F.);
#526=ADVANCED_FACE('',(#521,#525),#517,.F.);
#527=CLOSED_SHELL('',(#290,#304,#325,#344,#365,#383,#398,#414,#429,#442,#458,
#472,#484,#499,#512,#526));
#528=MANIFOLD_SOLID_BREP('',#527);
#530=DIMENSIONAL_EXPONENTS(0.E0,0.E0,0.E0,0.E0,0.E0,0.E0,0.E0);
#532=PLANE_ANGLE_MEASURE_WITH_UNIT(PLANE_ANGLE_MEASURE(1.745329251994E-2),#531);
#533=(CONVERSION_BASED_UNIT('DEGREE',#532)NAMED_UNIT(*)PLANE_ANGLE_UNIT());
#535=UNCERTAINTY_MEASURE_WITH_UNIT(LENGTH_MEASURE(2.001169559635E-2),#529,
'closure',
'Maximum model space distance between geometric entities at asserted connectivities');
#536=(GEOMETRIC_REPRESENTATION_CONTEXT(3)GLOBAL_UNCERTAINTY_ASSIGNED_CONTEXT((
#535))GLOBAL_UNIT_ASSIGNED_CONTEXT((#529,#533,#534))REPRESENTATION_CONTEXT
('ID1','3'));
#538=APPLICATION_CONTEXT(
'CONFIGURATION CONTROLLED 3D DESIGNS OF MECHANICAL PARTS AND ASSEMBLIES');
#539=APPLICATION_PROTOCOL_DEFINITION('international standard',
'config_control_design',1994,#538);
#540=DESIGN_CONTEXT('',#538,'design');
#541=MECHANICAL_CONTEXT('',#538,'mechanical');
#542=PRODUCT('PG__A_2016_10_21','PG__A_2016_10_21','NOT SPECIFIED',(#541));
#543=PRODUCT_DEFINITION_FORMATION_WITH_SPECIFIED_SOURCE('1','LAST_VERSION',#542,
.MADE.);
#547=PRODUCT_CATEGORY('part','');
#548=PRODUCT_RELATED_PRODUCT_CATEGORY('detail','',(#542));
#549=PRODUCT_CATEGORY_RELATIONSHIP('','',#547,#548);
#550=SECURITY_CLASSIFICATION_LEVEL('unclassified');
#551=SECURITY_CLASSIFICATION('','',#550);
#552=CC_DESIGN_SECURITY_CLASSIFICATION(#551,(#543));
#553=APPROVAL_STATUS('approved');
#554=APPROVAL(#553,'');
#555=CC_DESIGN_APPROVAL(#554,(#551,#543,#544));
#556=CALENDAR_DATE(116,9,8);
#557=COORDINATED_UNIVERSAL_TIME_OFFSET(2,0,.AHEAD.);
#558=LOCAL_TIME(6,53,1.5E1,#557);
#559=DATE_AND_TIME(#556,#558);
#560=APPROVAL_DATE_TIME(#559,#554);
#561=DATE_TIME_ROLE('creation_date');
#562=CC_DESIGN_DATE_AND_TIME_ASSIGNMENT(#559,#561,(#544));
#563=DATE_TIME_ROLE('classification_date');
#564=CC_DESIGN_DATE_AND_TIME_ASSIGNMENT(#559,#563,(#551));
#565=PERSON('UNSPECIFIED','UNSPECIFIED',$,$,$,$);
#566=ORGANIZATION('UNSPECIFIED','UNSPECIFIED','UNSPECIFIED');
#567=PERSON_AND_ORGANIZATION(#565,#566);
#568=APPROVAL_ROLE('approver');
#569=APPROVAL_PERSON_ORGANIZATION(#567,#554,#568);
#570=PERSON_AND_ORGANIZATION_ROLE('creator');
#571=CC_DESIGN_PERSON_AND_ORGANIZATION_ASSIGNMENT(#567,#570,(#543,#544));
#572=PERSON_AND_ORGANIZATION_ROLE('design_supplier');
#573=CC_DESIGN_PERSON_AND_ORGANIZATION_ASSIGNMENT(#567,#572,(#543));
#574=PERSON_AND_ORGANIZATION_ROLE('classification_officer');
#575=CC_DESIGN_PERSON_AND_ORGANIZATION_ASSIGNMENT(#567,#574,(#551));
#576=PERSON_AND_ORGANIZATION_ROLE('design_owner');
#577=CC_DESIGN_PERSON_AND_ORGANIZATION_ASSIGNMENT(#567,#576,(#542));
#5=CIRCLE('',#4,6.5115E1);
#14=CIRCLE('',#13,6.5115E1);
#29=B_SPLINE_CURVE_WITH_KNOTS('',3,(#19,#20,#21,#22,#23,#24,#25,#26,#27,#28),
.UNSPECIFIED.,.F.,.F.,(4,1,1,1,1,1,1,4),(0.E0,1.428571428571E-1,
2.857142857143E-1,4.285714285714E-1,5.714285714286E-1,7.142857142857E-1,
8.571428571429E-1,1.E0),.UNSPECIFIED.);
#42=CIRCLE('',#41,6.5115E1);
#59=B_SPLINE_CURVE_WITH_KNOTS('',3,(#47,#48,#49,#50,#51,#52,#53,#54,#55,#56,#57,
#58),.UNSPECIFIED.,.F.,.F.,(4,1,1,1,1,1,1,1,1,4),(0.E0,1.111111111111E-1,
2.222222222222E-1,3.333333333333E-1,4.444444444444E-1,5.555555555556E-1,
6.666666666667E-1,7.777777777778E-1,8.888888888889E-1,1.E0),.UNSPECIFIED.);
#74=B_SPLINE_CURVE_WITH_KNOTS('',3,(#64,#65,#66,#67,#68,#69,#70,#71,#72,#73),
.UNSPECIFIED.,.F.,.F.,(4,1,1,1,1,1,1,4),(0.E0,1.428571428571E-1,
2.857142857143E-1,4.285714285714E-1,5.714285714286E-1,7.142857142857E-1,
8.571428571429E-1,1.E0),.UNSPECIFIED.);
#79=CIRCLE('',#78,6.75E1);
#89=B_SPLINE_CURVE_WITH_KNOTS('',3,(#80,#81,#82,#83,#84,#85,#86,#87,#88),
.UNSPECIFIED.,.F.,.F.,(4,1,1,1,1,1,4),(0.E0,1.666666666667E-1,3.333333333333E-1,
5.E-1,6.666666666667E-1,8.333333333333E-1,1.E0),.UNSPECIFIED.);
#100=B_SPLINE_CURVE_WITH_KNOTS('',3,(#90,#91,#92,#93,#94,#95,#96,#97,#98,#99),
.UNSPECIFIED.,.F.,.F.,(4,1,1,1,1,1,1,4),(0.E0,1.428571428571E-1,
2.857142857143E-1,4.285714285714E-1,5.714285714286E-1,7.142857142857E-1,
8.571428571429E-1,1.E0),.UNSPECIFIED.);
#113=B_SPLINE_CURVE_WITH_KNOTS('',3,(#101,#102,#103,#104,#105,#106,#107,#108,
#109,#110,#111,#112),.UNSPECIFIED.,.F.,.F.,(4,1,1,1,1,1,1,1,1,4),(0.E0,
1.111111111111E-1,2.222222222222E-1,3.333333333333E-1,4.444444444444E-1,
5.555555555556E-1,6.666666666667E-1,7.777777777778E-1,8.888888888889E-1,1.E0),
.UNSPECIFIED.);
#126=CIRCLE('',#125,6.75E1);
#145=B_SPLINE_CURVE_WITH_KNOTS('',3,(#135,#136,#137,#138,#139,#140,#141,#142,
#143,#144),.UNSPECIFIED.,.F.,.F.,(4,1,1,1,1,1,1,4),(0.E0,1.428571428571E-1,
2.857142857143E-1,4.285714285714E-1,5.714285714286E-1,7.142857142857E-1,
8.571428571429E-1,1.E0),.UNSPECIFIED.);
#155=B_SPLINE_CURVE_WITH_KNOTS('',3,(#146,#147,#148,#149,#150,#151,#152,#153,
#154),.UNSPECIFIED.,.F.,.F.,(4,1,1,1,1,1,4),(0.E0,1.666666666667E-1,
3.333333333333E-1,5.E-1,6.666666666667E-1,8.333333333333E-1,1.E0),
.UNSPECIFIED.);
#160=CIRCLE('',#159,6.5115E1);
#165=CIRCLE('',#164,6.5715E1);
#174=CIRCLE('',#173,6.5715E1);
#183=CIRCLE('',#182,6.706323571888E1);
#188=CIRCLE('',#187,6.706323571888E1);
#193=CIRCLE('',#192,6.75E1);
#202=CIRCLE('',#201,6.75E1);
#215=CIRCLE('',#214,6.706323571888E1);
#224=CIRCLE('',#223,6.706323571888E1);
#229=CIRCLE('',#228,6.5715E1);
#234=CIRCLE('',#233,6.5715E1);
#280=EDGE_CURVE('',#237,#238,#9,.T.);
#282=EDGE_CURVE('',#238,#254,#229,.T.);
#284=EDGE_CURVE('',#253,#254,#18,.T.);
#286=EDGE_CURVE('',#237,#253,#5,.T.);
#297=EDGE_CURVE('',#237,#253,#14,.T.);
#300=EDGE_CURVE('',#238,#254,#234,.T.);
#310=EDGE_CURVE('',#271,#274,#29,.T.);
#312=EDGE_CURVE('',#271,#253,#33,.T.);
#315=EDGE_CURVE('',#250,#237,#37,.T.);
#317=EDGE_CURVE('',#250,#266,#42,.T.);
#319=EDGE_CURVE('',#266,#272,#46,.T.);
#321=EDGE_CURVE('',#274,#272,#59,.T.);
#331=EDGE_CURVE('',#267,#268,#74,.T.);
#333=EDGE_CURVE('',#268,#270,#134,.T.);
#335=EDGE_CURVE('',#270,#271,#145,.T.);
#338=EDGE_CURVE('',#273,#274,#63,.T.);
#340=EDGE_CURVE('',#273,#267,#100,.T.);
#351=EDGE_CURVE('',#258,#267,#130,.T.);
#353=EDGE_CURVE('',#242,#258,#79,.T.);
#355=EDGE_CURVE('',#242,#244,#121,.T.);
#357=EDGE_CURVE('',#244,#261,#193,.T.);
#359=EDGE_CURVE('',#269,#261,#117,.T.);
#361=EDGE_CURVE('',#268,#269,#89,.T.);
#372=EDGE_CURVE('',#269,#273,#113,.T.);
#375=EDGE_CURVE('',#244,#261,#202,.T.);
#378=EDGE_CURVE('',#242,#258,#126,.T.);
#393=EDGE_CURVE('',#272,#270,#155,.T.);
#407=EDGE_CURVE('',#250,#266,#160,.T.);
#420=EDGE_CURVE('',#249,#250,#169,.T.);
#423=EDGE_CURVE('',#265,#266,#178,.T.);
#425=EDGE_CURVE('',#249,#265,#165,.T.);
#436=EDGE_CURVE('',#249,#265,#174,.T.);
#448=EDGE_CURVE('',#246,#262,#183,.T.);
#450=EDGE_CURVE('',#246,#262,#188,.T.);
#464=EDGE_CURVE('',#244,#246,#197,.T.);
#467=EDGE_CURVE('',#261,#262,#206,.T.);
#490=EDGE_CURVE('',#241,#242,#210,.T.);
#492=EDGE_CURVE('',#241,#257,#215,.T.);
#494=EDGE_CURVE('',#257,#258,#219,.T.);
#508=EDGE_CURVE('',#241,#257,#224,.T.);
#529=(LENGTH_UNIT()NAMED_UNIT(*)SI_UNIT(.MILLI.,.METRE.));
#531=(NAMED_UNIT(*)PLANE_ANGLE_UNIT()SI_UNIT($,.RADIAN.));
#534=(NAMED_UNIT(*)SI_UNIT($,.STERADIAN.)SOLID_ANGLE_UNIT());
#537=ADVANCED_BREP_SHAPE_REPRESENTATION('',(#528),#536);
#544=PRODUCT_DEFINITION('design','',#543,#540);
#545=PRODUCT_DEFINITION_SHAPE('','SHAPE FOR PG__A_2016_10_21.',#544);
#546=SHAPE_DEFINITION_REPRESENTATION(#545,#537);
ENDSEC;
END-ISO-10303-21;
