ISO-10303-21;
HEADER;
FILE_DESCRIPTION((''),'2;1');
FILE_NAME('PG__A_2016_10_21','2016-08-09T',('deusss58'),(''),
'PRO/ENGINEER BY PARAMETRIC TECHNOLOGY CORPORATION, 2014430',
'PRO/ENGINEER BY PARAMETRIC TECHNOLOGY CORPORATION, 2014430','');
FILE_SCHEMA(('CONFIG_CONTROL_DESIGN'));
ENDSEC;
DATA;
#1=CARTESIAN_POINT('',(0.E0,0.E0,4.94E1));
#2=DIRECTION('',(0.E0,0.E0,-1.E0));
#3=DIRECTION('',(0.E0,-1.E0,0.E0));
#4=AXIS2_PLACEMENT_3D('',#1,#2,#3);
#6=DIRECTION('',(0.E0,-7.071067811866E-1,7.071067811865E-1));
#7=VECTOR('',#6,8.485281374239E-1);
#8=CARTESIAN_POINT('',(0.E0,-7.5115E1,4.94E1));
#9=LINE('',#8,#7);
#10=CARTESIAN_POINT('',(0.E0,0.E0,4.94E1));
#11=DIRECTION('',(0.E0,0.E0,1.E0));
#12=DIRECTION('',(0.E0,-1.E0,0.E0));
#13=AXIS2_PLACEMENT_3D('',#10,#11,#12);
#15=DIRECTION('',(0.E0,7.071067811866E-1,7.071067811865E-1));
#16=VECTOR('',#15,8.485281374239E-1);
#17=CARTESIAN_POINT('',(-1.667888049894E-14,7.5115E1,4.94E1));
#18=LINE('',#17,#16);
#19=CARTESIAN_POINT('',(1.845603418407E-13,7.5115E1,4.E0));
#20=CARTESIAN_POINT('',(3.543360184697E-1,7.5115E1,4.E0));
#21=CARTESIAN_POINT('',(1.037838817530E0,7.511013743295E1,3.910420537029E0));
#22=CARTESIAN_POINT('',(2.031101425339E0,7.508943944007E1,3.500193752026E0));
#23=CARTESIAN_POINT('',(2.861201151665E0,7.506169634788E1,2.859860138374E0));
#24=CARTESIAN_POINT('',(3.508920223837E0,7.503361405313E1,2.016652937242E0));
#25=CARTESIAN_POINT('',(3.909908947486E0,7.501330263631E1,1.035026702353E0));
#26=CARTESIAN_POINT('',(4.000000028732E0,7.500842102273E1,3.531844477683E-1));
#27=CARTESIAN_POINT('',(4.000000028732E0,7.500842102273E1,-2.213880803431E-7));
#29=DIRECTION('',(0.E0,0.E0,1.E0));
#30=VECTOR('',#29,4.54E1);
#31=CARTESIAN_POINT('',(1.845603418407E-13,7.5115E1,4.E0));
#32=LINE('',#31,#30);
#33=DIRECTION('',(0.E0,0.E0,1.E0));
#34=VECTOR('',#33,9.88E1);
#35=CARTESIAN_POINT('',(0.E0,-7.5115E1,-4.94E1));
#36=LINE('',#35,#34);
#37=CARTESIAN_POINT('',(0.E0,0.E0,-4.94E1));
#38=DIRECTION('',(0.E0,0.E0,1.E0));
#39=DIRECTION('',(0.E0,-1.E0,0.E0));
#40=AXIS2_PLACEMENT_3D('',#37,#38,#39);
#42=DIRECTION('',(0.E0,0.E0,1.E0));
#43=VECTOR('',#42,4.54E1);
#44=CARTESIAN_POINT('',(-1.667888049894E-14,7.5115E1,-4.94E1));
#45=LINE('',#44,#43);
#46=CARTESIAN_POINT('',(4.000000028732E0,7.500842102273E1,-2.213880803431E-7));
#47=CARTESIAN_POINT('',(4.000000028732E0,7.500842102273E1,-3.523797631612E-1));
#48=CARTESIAN_POINT('',(3.910245651703E0,7.501328244733E1,-1.032951570772E0));
#49=CARTESIAN_POINT('',(3.510916414706E0,7.503352111105E1,-2.013174822885E0));
#50=CARTESIAN_POINT('',(2.863697086084E0,7.506158824004E1,-2.857011346984E0));
#51=CARTESIAN_POINT('',(2.037347276001E0,7.508927709426E1,-3.496790932568E0));
#52=CARTESIAN_POINT('',(1.037931450060E0,7.511015825664E1,-3.910895961815E0));
#53=CARTESIAN_POINT('',(3.542922464767E-1,7.5115E1,-4.E0));
#54=CARTESIAN_POINT('',(0.E0,7.5115E1,-4.E0));
#56=DIRECTION('',(1.203052273694E-8,-1.E0,-9.269753887661E-8));
#57=VECTOR('',#56,2.388284333503E0);
#58=CARTESIAN_POINT('',(4.E0,7.739670535624E1,0.E0));
#59=LINE('',#58,#57);
#60=CARTESIAN_POINT('',(1.818621596852E-13,7.75E1,4.E0));
#61=CARTESIAN_POINT('',(-3.542422778560E-1,7.75E1,4.E0));
#62=CARTESIAN_POINT('',(-1.037809491516E0,7.749530663255E1,3.910871132387E0));
#63=CARTESIAN_POINT('',(-2.036692903435E0,7.747508642105E1,3.497187061878E0));
#64=CARTESIAN_POINT('',(-2.863651305778E0,7.744823555936E1,2.857068596984E0));
#65=CARTESIAN_POINT('',(-3.510552858704E0,7.742104702875E1,2.013755269838E0));
#66=CARTESIAN_POINT('',(-3.910214638138E0,7.740141892760E1,1.033240899357E0));
#67=CARTESIAN_POINT('',(-4.E0,7.739670535624E1,3.525033898034E-1));
#68=CARTESIAN_POINT('',(-4.E0,7.739670535624E1,0.E0));
#70=CARTESIAN_POINT('',(0.E0,0.E0,4.88E1));
#71=DIRECTION('',(0.E0,0.E0,-1.E0));
#72=DIRECTION('',(0.E0,-1.E0,0.E0));
#73=AXIS2_PLACEMENT_3D('',#70,#71,#72);
#75=CARTESIAN_POINT('',(-4.E0,7.739670535624E1,0.E0));
#76=CARTESIAN_POINT('',(-4.E0,7.739670535624E1,-3.532712691641E-1));
#77=CARTESIAN_POINT('',(-3.909902480464E0,7.740143731941E1,-1.035220192490E0));
#78=CARTESIAN_POINT('',(-3.508600062639E0,7.742113475251E1,-2.017134312688E0));
#79=CARTESIAN_POINT('',(-2.861323310584E0,7.744833448626E1,-2.859767330706E0));
#80=CARTESIAN_POINT('',(-2.030366480245E0,7.747524627584E1,-3.500651012329E0));
#81=CARTESIAN_POINT('',(-1.037719475962E0,7.749528602652E1,-3.910384104319E0));
#82=CARTESIAN_POINT('',(-3.542815807291E-1,7.75E1,-4.E0));
#83=CARTESIAN_POINT('',(1.252842872911E-13,7.75E1,-4.E0));
#85=CARTESIAN_POINT('',(4.E0,7.739670535624E1,0.E0));
#86=CARTESIAN_POINT('',(4.E0,7.739670535624E1,3.531940243483E-1));
#87=CARTESIAN_POINT('',(3.909903084808E0,7.740143661776E1,1.035049388612E0));
#88=CARTESIAN_POINT('',(3.508913150484E0,7.742112146689E1,2.016663071605E0));
#89=CARTESIAN_POINT('',(2.861196807621E0,7.744833787727E1,2.859863884639E0));
#90=CARTESIAN_POINT('',(2.031103365017E0,7.747522611547E1,3.500191180310E0));
#91=CARTESIAN_POINT('',(1.037854630956E0,7.749528682283E1,3.910415947322E0));
#92=CARTESIAN_POINT('',(3.543443265814E-1,7.75E1,4.E0));
#93=CARTESIAN_POINT('',(1.818621596852E-13,7.75E1,4.E0));
#95=CARTESIAN_POINT('',(1.252842872911E-13,7.75E1,-4.E0));
#96=CARTESIAN_POINT('',(3.543000149495E-1,7.75E1,-4.E0));
#97=CARTESIAN_POINT('',(1.037945992068E0,7.749530702060E1,-3.910891668089E0));
#98=CARTESIAN_POINT('',(2.037348312936E0,7.747506879523E1,-3.496788952237E0));
#99=CARTESIAN_POINT('',(2.863692800616E0,7.744823310277E1,-2.857015198468E0));
#100=CARTESIAN_POINT('',(3.510910280838E0,7.742103134960E1,-2.013183721454E0));
#101=CARTESIAN_POINT('',(3.910240539729E0,7.740141701301E1,-1.032971274288E0));
#102=CARTESIAN_POINT('',(4.E0,7.739670535624E1,-3.523883084192E-1));
#103=CARTESIAN_POINT('',(4.E0,7.739670535624E1,0.E0));
#105=DIRECTION('',(0.E0,0.E0,-1.E0));
#106=VECTOR('',#105,4.48E1);
#107=CARTESIAN_POINT('',(1.252842872911E-13,7.75E1,-4.E0));
#108=LINE('',#107,#106);
#109=DIRECTION('',(0.E0,0.E0,-1.E0));
#110=VECTOR('',#109,9.76E1);
#111=CARTESIAN_POINT('',(0.E0,-7.75E1,4.88E1));
#112=LINE('',#111,#110);
#113=CARTESIAN_POINT('',(0.E0,0.E0,4.88E1));
#114=DIRECTION('',(0.E0,0.E0,1.E0));
#115=DIRECTION('',(0.E0,-1.E0,0.E0));
#116=AXIS2_PLACEMENT_3D('',#113,#114,#115);
#118=DIRECTION('',(0.E0,0.E0,-1.E0));
#119=VECTOR('',#118,4.48E1);
#120=CARTESIAN_POINT('',(-1.720845688169E-14,7.75E1,4.88E1));
#121=LINE('',#120,#119);
#122=DIRECTION('',(-1.189885443395E-8,-1.E0,8.813361494058E-8));
#123=VECTOR('',#122,2.388284333453E0);
#124=CARTESIAN_POINT('',(-4.E0,7.739670535624E1,0.E0));
#125=LINE('',#124,#123);
#126=CARTESIAN_POINT('',(-4.000000028418E0,7.500842102278E1,2.104881321398E-7));
#127=CARTESIAN_POINT('',(-4.000000028418E0,7.500842102278E1,3.524949631971E-1));
#128=CARTESIAN_POINT('',(-3.910219697707E0,7.501328442583E1,1.033221511583E0));
#129=CARTESIAN_POINT('',(-3.510558678834E0,7.503353730459E1,2.013746989063E0));
#130=CARTESIAN_POINT('',(-2.863654884211E0,7.506159080302E1,2.857065486087E0));
#131=CARTESIAN_POINT('',(-2.036690862650E0,7.508929530808E1,3.497189626246E0));
#132=CARTESIAN_POINT('',(-1.037794022287E0,7.511015786707E1,3.910875626122E0));
#133=CARTESIAN_POINT('',(-3.542341321264E-1,7.5115E1,4.E0));
#134=CARTESIAN_POINT('',(1.845603418407E-13,7.5115E1,4.E0));
#136=CARTESIAN_POINT('',(0.E0,7.5115E1,-4.E0));
#137=CARTESIAN_POINT('',(-3.542728753341E-1,7.5115E1,-4.E0));
#138=CARTESIAN_POINT('',(-1.037702691486E0,7.511013662273E1,-3.910388904946E0));
#139=CARTESIAN_POINT('',(-2.030363518973E0,7.508946026959E1,-3.500654181550E0));
#140=CARTESIAN_POINT('',(-2.861326978067E0,7.506169287625E1,-2.859764297909E0));
#141=CARTESIAN_POINT('',(-3.508606849606E0,7.503362777562E1,-2.017124749120E0));
#142=CARTESIAN_POINT('',(-3.909908309344E0,7.501330336226E1,-1.035197751781E0));
#143=CARTESIAN_POINT('',(-4.000000028418E0,7.500842102278E1,
-3.532617686333E-1));
#144=CARTESIAN_POINT('',(-4.000000028418E0,7.500842102278E1,2.104881321398E-7));
#146=CARTESIAN_POINT('',(0.E0,0.E0,-4.94E1));
#147=DIRECTION('',(0.E0,0.E0,-1.E0));
#148=DIRECTION('',(0.E0,-1.E0,0.E0));
#149=AXIS2_PLACEMENT_3D('',#146,#147,#148);
#151=CARTESIAN_POINT('',(0.E0,0.E0,-5.E1));
#152=DIRECTION('',(0.E0,0.E0,-1.E0));
#153=DIRECTION('',(0.E0,-1.E0,0.E0));
#154=AXIS2_PLACEMENT_3D('',#151,#152,#153);
#156=DIRECTION('',(0.E0,7.071067811865E-1,7.071067811865E-1));
#157=VECTOR('',#156,8.485281374239E-1);
#158=CARTESIAN_POINT('',(0.E0,-7.5715E1,-5.E1));
#159=LINE('',#158,#157);
#160=CARTESIAN_POINT('',(0.E0,0.E0,-5.E1));
#161=DIRECTION('',(0.E0,0.E0,1.E0));
#162=DIRECTION('',(0.E0,-1.E0,0.E0));
#163=AXIS2_PLACEMENT_3D('',#160,#161,#162);
#165=DIRECTION('',(0.E0,-7.071067811865E-1,7.071067811865E-1));
#166=VECTOR('',#165,8.485281374239E-1);
#167=CARTESIAN_POINT('',(-1.120807150793E-14,7.5715E1,-5.E1));
#168=LINE('',#167,#166);
#169=CARTESIAN_POINT('',(0.E0,0.E0,-5.E1));
#170=DIRECTION('',(0.E0,0.E0,-1.E0));
#171=DIRECTION('',(0.E0,-1.E0,0.E0));
#172=AXIS2_PLACEMENT_3D('',#169,#170,#171);
#174=CARTESIAN_POINT('',(0.E0,0.E0,-5.E1));
#175=DIRECTION('',(0.E0,0.E0,1.E0));
#176=DIRECTION('',(0.E0,-1.E0,0.E0));
#177=AXIS2_PLACEMENT_3D('',#174,#175,#176);
#179=CARTESIAN_POINT('',(0.E0,0.E0,-4.88E1));
#180=DIRECTION('',(0.E0,0.E0,-1.E0));
#181=DIRECTION('',(0.E0,-1.E0,0.E0));
#182=AXIS2_PLACEMENT_3D('',#179,#180,#181);
#184=DIRECTION('',(0.E0,3.420201433257E-1,-9.396926207859E-1));
#185=VECTOR('',#184,1.277013326971E0);
#186=CARTESIAN_POINT('',(0.E0,-7.75E1,-4.88E1));
#187=LINE('',#186,#185);
#188=CARTESIAN_POINT('',(0.E0,0.E0,-4.88E1));
#189=DIRECTION('',(0.E0,0.E0,1.E0));
#190=DIRECTION('',(0.E0,-1.E0,0.E0));
#191=AXIS2_PLACEMENT_3D('',#188,#189,#190);
#193=DIRECTION('',(0.E0,-3.420201433257E-1,-9.396926207859E-1));
#194=VECTOR('',#193,1.277013326971E0);
#195=CARTESIAN_POINT('',(-1.720845688169E-14,7.75E1,-4.88E1));
#196=LINE('',#195,#194);
#197=DIRECTION('',(0.E0,-3.420201433257E-1,-9.396926207859E-1));
#198=VECTOR('',#197,1.277013326971E0);
#199=CARTESIAN_POINT('',(0.E0,-7.706323571888E1,5.E1));
#200=LINE('',#199,#198);
#201=CARTESIAN_POINT('',(0.E0,0.E0,5.E1));
#202=DIRECTION('',(0.E0,0.E0,1.E0));
#203=DIRECTION('',(0.E0,-1.E0,0.E0));
#204=AXIS2_PLACEMENT_3D('',#201,#202,#203);
#206=DIRECTION('',(0.E0,3.420201433257E-1,-9.396926207859E-1));
#207=VECTOR('',#206,1.277013326971E0);
#208=CARTESIAN_POINT('',(-1.140765048630E-14,7.706323571888E1,5.E1));
#209=LINE('',#208,#207);
#210=CARTESIAN_POINT('',(0.E0,0.E0,5.E1));
#211=DIRECTION('',(0.E0,0.E0,-1.E0));
#212=DIRECTION('',(0.E0,-1.E0,0.E0));
#213=AXIS2_PLACEMENT_3D('',#210,#211,#212);
#215=CARTESIAN_POINT('',(0.E0,0.E0,5.E1));
#216=DIRECTION('',(0.E0,0.E0,-1.E0));
#217=DIRECTION('',(0.E0,-1.E0,0.E0));
#218=AXIS2_PLACEMENT_3D('',#215,#216,#217);
#220=CARTESIAN_POINT('',(0.E0,0.E0,5.E1));
#221=DIRECTION('',(0.E0,0.E0,1.E0));
#222=DIRECTION('',(0.E0,-1.E0,0.E0));
#223=AXIS2_PLACEMENT_3D('',#220,#221,#222);
#225=CARTESIAN_POINT('',(0.E0,-7.5115E1,4.94E1));
#226=CARTESIAN_POINT('',(0.E0,-7.5715E1,5.E1));
#227=VERTEX_POINT('',#225);
#228=VERTEX_POINT('',#226);
#229=CARTESIAN_POINT('',(0.E0,-7.706323571888E1,5.E1));
#230=CARTESIAN_POINT('',(0.E0,-7.75E1,4.88E1));
#231=VERTEX_POINT('',#229);
#232=VERTEX_POINT('',#230);
#233=CARTESIAN_POINT('',(0.E0,-7.75E1,-4.88E1));
#234=VERTEX_POINT('',#233);
#235=CARTESIAN_POINT('',(0.E0,-7.706323571888E1,-5.E1));
#236=VERTEX_POINT('',#235);
#237=CARTESIAN_POINT('',(0.E0,-7.5715E1,-5.E1));
#238=CARTESIAN_POINT('',(0.E0,-7.5115E1,-4.94E1));
#239=VERTEX_POINT('',#237);
#240=VERTEX_POINT('',#238);
#241=CARTESIAN_POINT('',(-1.667888049894E-14,7.5115E1,4.94E1));
#242=CARTESIAN_POINT('',(-1.120807150793E-14,7.5715E1,5.E1));
#243=VERTEX_POINT('',#241);
#244=VERTEX_POINT('',#242);
#245=CARTESIAN_POINT('',(-1.140765048630E-14,7.706323571888E1,5.E1));
#246=CARTESIAN_POINT('',(-1.720845688169E-14,7.75E1,4.88E1));
#247=VERTEX_POINT('',#245);
#248=VERTEX_POINT('',#246);
#249=CARTESIAN_POINT('',(-1.720845688169E-14,7.75E1,-4.88E1));
#250=CARTESIAN_POINT('',(-1.140765048630E-14,7.706323571888E1,-5.E1));
#251=VERTEX_POINT('',#249);
#252=VERTEX_POINT('',#250);
#253=CARTESIAN_POINT('',(-1.120807150793E-14,7.5715E1,-5.E1));
#254=CARTESIAN_POINT('',(-1.667888049894E-14,7.5115E1,-4.94E1));
#255=VERTEX_POINT('',#253);
#256=VERTEX_POINT('',#254);
#257=VERTEX_POINT('',#60);
#258=VERTEX_POINT('',#68);
#259=VERTEX_POINT('',#83);
#260=VERTEX_POINT('',#126);
#261=VERTEX_POINT('',#134);
#262=VERTEX_POINT('',#136);
#263=VERTEX_POINT('',#85);
#264=VERTEX_POINT('',#27);
#265=CARTESIAN_POINT('',(0.E0,0.E0,4.97E1));
#266=DIRECTION('',(0.E0,0.E0,1.E0));
#267=DIRECTION('',(0.E0,1.E0,0.E0));
#268=AXIS2_PLACEMENT_3D('',#265,#266,#267);
#269=CONICAL_SURFACE('',#268,7.5415E1,4.5E1);
#271=ORIENTED_EDGE('',*,*,#270,.T.);
#273=ORIENTED_EDGE('',*,*,#272,.T.);
#275=ORIENTED_EDGE('',*,*,#274,.F.);
#277=ORIENTED_EDGE('',*,*,#276,.F.);
#278=EDGE_LOOP('',(#271,#273,#275,#277));
#279=FACE_OUTER_BOUND('',#278,.F.);
#280=ADVANCED_FACE('',(#279),#269,.F.);
#281=CARTESIAN_POINT('',(0.E0,0.E0,4.97E1));
#282=DIRECTION('',(0.E0,0.E0,1.E0));
#283=DIRECTION('',(0.E0,1.E0,0.E0));
#284=AXIS2_PLACEMENT_3D('',#281,#282,#283);
#285=CONICAL_SURFACE('',#284,7.5415E1,4.5E1);
#286=ORIENTED_EDGE('',*,*,#270,.F.);
#288=ORIENTED_EDGE('',*,*,#287,.T.);
#289=ORIENTED_EDGE('',*,*,#274,.T.);
#291=ORIENTED_EDGE('',*,*,#290,.F.);
#292=EDGE_LOOP('',(#286,#288,#289,#291));
#293=FACE_OUTER_BOUND('',#292,.F.);
#294=ADVANCED_FACE('',(#293),#285,.F.);
#295=CARTESIAN_POINT('',(0.E0,0.E0,5.5E1));
#296=DIRECTION('',(0.E0,0.E0,-1.E0));
#297=DIRECTION('',(0.E0,-1.E0,0.E0));
#298=AXIS2_PLACEMENT_3D('',#295,#296,#297);
#299=CYLINDRICAL_SURFACE('',#298,7.5115E1);
#301=ORIENTED_EDGE('',*,*,#300,.F.);
#303=ORIENTED_EDGE('',*,*,#302,.T.);
#304=ORIENTED_EDGE('',*,*,#287,.F.);
#306=ORIENTED_EDGE('',*,*,#305,.F.);
#308=ORIENTED_EDGE('',*,*,#307,.T.);
#310=ORIENTED_EDGE('',*,*,#309,.T.);
#312=ORIENTED_EDGE('',*,*,#311,.F.);
#313=EDGE_LOOP('',(#301,#303,#304,#306,#308,#310,#312));
#314=FACE_OUTER_BOUND('',#313,.F.);
#315=ADVANCED_FACE('',(#314),#299,.F.);
#316=CARTESIAN_POINT('',(0.E0,7.75E1,0.E0));
#317=DIRECTION('',(0.E0,-1.E0,0.E0));
#318=DIRECTION('',(1.E0,0.E0,0.E0));
#319=AXIS2_PLACEMENT_3D('',#316,#317,#318);
#320=CYLINDRICAL_SURFACE('',#319,4.E0);
#322=ORIENTED_EDGE('',*,*,#321,.T.);
#324=ORIENTED_EDGE('',*,*,#323,.T.);
#326=ORIENTED_EDGE('',*,*,#325,.T.);
#327=ORIENTED_EDGE('',*,*,#300,.T.);
#329=ORIENTED_EDGE('',*,*,#328,.F.);
#331=ORIENTED_EDGE('',*,*,#330,.T.);
#332=EDGE_LOOP('',(#322,#324,#326,#327,#329,#331));
#333=FACE_OUTER_BOUND('',#332,.F.);
#334=ADVANCED_FACE('',(#333),#320,.F.);
#335=CARTESIAN_POINT('',(0.E0,0.E0,5.5E1));
#336=DIRECTION('',(0.E0,0.E0,-1.E0));
#337=DIRECTION('',(0.E0,-1.E0,0.E0));
#338=AXIS2_PLACEMENT_3D('',#335,#336,#337);
#339=CYLINDRICAL_SURFACE('',#338,7.75E1);
#340=ORIENTED_EDGE('',*,*,#321,.F.);
#342=ORIENTED_EDGE('',*,*,#341,.F.);
#344=ORIENTED_EDGE('',*,*,#343,.F.);
#346=ORIENTED_EDGE('',*,*,#345,.T.);
#348=ORIENTED_EDGE('',*,*,#347,.T.);
#350=ORIENTED_EDGE('',*,*,#349,.F.);
#352=ORIENTED_EDGE('',*,*,#351,.F.);
#353=EDGE_LOOP('',(#340,#342,#344,#346,#348,#350,#352));
#354=FACE_OUTER_BOUND('',#353,.F.);
#355=ADVANCED_FACE('',(#354),#339,.T.);
#356=CARTESIAN_POINT('',(0.E0,0.E0,5.5E1));
#357=DIRECTION('',(0.E0,0.E0,-1.E0));
#358=DIRECTION('',(0.E0,-1.E0,0.E0));
#359=AXIS2_PLACEMENT_3D('',#356,#357,#358);
#360=CYLINDRICAL_SURFACE('',#359,7.75E1);
#361=ORIENTED_EDGE('',*,*,#330,.F.);
#363=ORIENTED_EDGE('',*,*,#362,.F.);
#364=ORIENTED_EDGE('',*,*,#349,.T.);
#366=ORIENTED_EDGE('',*,*,#365,.F.);
#367=ORIENTED_EDGE('',*,*,#345,.F.);
#369=ORIENTED_EDGE('',*,*,#368,.T.);
#370=ORIENTED_EDGE('',*,*,#341,.T.);
#371=EDGE_LOOP('',(#361,#363,#364,#366,#367,#369,#370));
#372=FACE_OUTER_BOUND('',#371,.F.);
#373=ADVANCED_FACE('',(#372),#360,.T.);
#374=CARTESIAN_POINT('',(0.E0,7.75E1,0.E0));
#375=DIRECTION('',(0.E0,-1.E0,0.E0));
#376=DIRECTION('',(1.E0,0.E0,0.E0));
#377=AXIS2_PLACEMENT_3D('',#374,#375,#376);
#378=CYLINDRICAL_SURFACE('',#377,4.E0);
#379=ORIENTED_EDGE('',*,*,#351,.T.);
#380=ORIENTED_EDGE('',*,*,#362,.T.);
#381=ORIENTED_EDGE('',*,*,#328,.T.);
#382=ORIENTED_EDGE('',*,*,#311,.T.);
#384=ORIENTED_EDGE('',*,*,#383,.T.);
#385=ORIENTED_EDGE('',*,*,#323,.F.);
#386=EDGE_LOOP('',(#379,#380,#381,#382,#384,#385));
#387=FACE_OUTER_BOUND('',#386,.F.);
#388=ADVANCED_FACE('',(#387),#378,.F.);
#389=CARTESIAN_POINT('',(0.E0,0.E0,5.5E1));
#390=DIRECTION('',(0.E0,0.E0,-1.E0));
#391=DIRECTION('',(0.E0,-1.E0,0.E0));
#392=AXIS2_PLACEMENT_3D('',#389,#390,#391);
#393=CYLINDRICAL_SURFACE('',#392,7.5115E1);
#394=ORIENTED_EDGE('',*,*,#325,.F.);
#395=ORIENTED_EDGE('',*,*,#383,.F.);
#396=ORIENTED_EDGE('',*,*,#309,.F.);
#398=ORIENTED_EDGE('',*,*,#397,.F.);
#399=ORIENTED_EDGE('',*,*,#305,.T.);
#400=ORIENTED_EDGE('',*,*,#276,.T.);
#401=ORIENTED_EDGE('',*,*,#302,.F.);
#402=EDGE_LOOP('',(#394,#395,#396,#398,#399,#400,#401));
#403=FACE_OUTER_BOUND('',#402,.F.);
#404=ADVANCED_FACE('',(#403),#393,.F.);
#405=CARTESIAN_POINT('',(0.E0,0.E0,-4.97E1));
#406=DIRECTION('',(0.E0,0.E0,-1.E0));
#407=DIRECTION('',(0.E0,-1.E0,0.E0));
#408=AXIS2_PLACEMENT_3D('',#405,#406,#407);
#409=CONICAL_SURFACE('',#408,7.5415E1,4.5E1);
#411=ORIENTED_EDGE('',*,*,#410,.T.);
#412=ORIENTED_EDGE('',*,*,#397,.T.);
#414=ORIENTED_EDGE('',*,*,#413,.F.);
#416=ORIENTED_EDGE('',*,*,#415,.F.);
#417=EDGE_LOOP('',(#411,#412,#414,#416));
#418=FACE_OUTER_BOUND('',#417,.F.);
#419=ADVANCED_FACE('',(#418),#409,.F.);
#420=CARTESIAN_POINT('',(0.E0,0.E0,-4.97E1));
#421=DIRECTION('',(0.E0,0.E0,-1.E0));
#422=DIRECTION('',(0.E0,-1.E0,0.E0));
#423=AXIS2_PLACEMENT_3D('',#420,#421,#422);
#424=CONICAL_SURFACE('',#423,7.5415E1,4.5E1);
#425=ORIENTED_EDGE('',*,*,#410,.F.);
#427=ORIENTED_EDGE('',*,*,#426,.T.);
#428=ORIENTED_EDGE('',*,*,#413,.T.);
#429=ORIENTED_EDGE('',*,*,#307,.F.);
#430=EDGE_LOOP('',(#425,#427,#428,#429));
#431=FACE_OUTER_BOUND('',#430,.F.);
#432=ADVANCED_FACE('',(#431),#424,.F.);
#433=CARTESIAN_POINT('',(0.E0,0.E0,-5.E1));
#434=DIRECTION('',(0.E0,0.E0,-1.E0));
#435=DIRECTION('',(0.E0,-1.E0,0.E0));
#436=AXIS2_PLACEMENT_3D('',#433,#434,#435);
#437=PLANE('',#436);
#439=ORIENTED_EDGE('',*,*,#438,.F.);
#441=ORIENTED_EDGE('',*,*,#440,.T.);
#442=EDGE_LOOP('',(#439,#441));
#443=FACE_OUTER_BOUND('',#442,.F.);
#444=ORIENTED_EDGE('',*,*,#426,.F.);
#445=ORIENTED_EDGE('',*,*,#415,.T.);
#446=EDGE_LOOP('',(#444,#445));
#447=FACE_BOUND('',#446,.F.);
#448=ADVANCED_FACE('',(#443,#447),#437,.T.);
#449=CARTESIAN_POINT('',(0.E0,0.E0,-4.94E1));
#450=DIRECTION('',(0.E0,0.E0,1.E0));
#451=DIRECTION('',(0.E0,1.E0,0.E0));
#452=AXIS2_PLACEMENT_3D('',#449,#450,#451);
#453=CONICAL_SURFACE('',#452,7.728161785944E1,2.E1);
#455=ORIENTED_EDGE('',*,*,#454,.T.);
#456=ORIENTED_EDGE('',*,*,#438,.T.);
#458=ORIENTED_EDGE('',*,*,#457,.F.);
#459=ORIENTED_EDGE('',*,*,#347,.F.);
#460=EDGE_LOOP('',(#455,#456,#458,#459));
#461=FACE_OUTER_BOUND('',#460,.F.);
#462=ADVANCED_FACE('',(#461),#453,.T.);
#463=CARTESIAN_POINT('',(0.E0,0.E0,-4.94E1));
#464=DIRECTION('',(0.E0,0.E0,1.E0));
#465=DIRECTION('',(0.E0,1.E0,0.E0));
#466=AXIS2_PLACEMENT_3D('',#463,#464,#465);
#467=CONICAL_SURFACE('',#466,7.728161785944E1,2.E1);
#468=ORIENTED_EDGE('',*,*,#454,.F.);
#469=ORIENTED_EDGE('',*,*,#365,.T.);
#470=ORIENTED_EDGE('',*,*,#457,.T.);
#471=ORIENTED_EDGE('',*,*,#440,.F.);
#472=EDGE_LOOP('',(#468,#469,#470,#471));
#473=FACE_OUTER_BOUND('',#472,.F.);
#474=ADVANCED_FACE('',(#473),#467,.T.);
#475=CARTESIAN_POINT('',(0.E0,0.E0,4.94E1));
#476=DIRECTION('',(0.E0,0.E0,-1.E0));
#477=DIRECTION('',(0.E0,-1.E0,0.E0));
#478=AXIS2_PLACEMENT_3D('',#475,#476,#477);
#479=CONICAL_SURFACE('',#478,7.728161785944E1,2.E1);
#481=ORIENTED_EDGE('',*,*,#480,.F.);
#483=ORIENTED_EDGE('',*,*,#482,.T.);
#485=ORIENTED_EDGE('',*,*,#484,.T.);
#486=ORIENTED_EDGE('',*,*,#368,.F.);
#487=EDGE_LOOP('',(#481,#483,#485,#486));
#488=FACE_OUTER_BOUND('',#487,.F.);
#489=ADVANCED_FACE('',(#488),#479,.T.);
#490=CARTESIAN_POINT('',(0.E0,0.E0,4.94E1));
#491=DIRECTION('',(0.E0,0.E0,-1.E0));
#492=DIRECTION('',(0.E0,-1.E0,0.E0));
#493=AXIS2_PLACEMENT_3D('',#490,#491,#492);
#494=CONICAL_SURFACE('',#493,7.728161785944E1,2.E1);
#495=ORIENTED_EDGE('',*,*,#480,.T.);
#496=ORIENTED_EDGE('',*,*,#343,.T.);
#497=ORIENTED_EDGE('',*,*,#484,.F.);
#499=ORIENTED_EDGE('',*,*,#498,.F.);
#500=EDGE_LOOP('',(#495,#496,#497,#499));
#501=FACE_OUTER_BOUND('',#500,.F.);
#502=ADVANCED_FACE('',(#501),#494,.T.);
#503=CARTESIAN_POINT('',(0.E0,0.E0,5.E1));
#504=DIRECTION('',(0.E0,0.E0,-1.E0));
#505=DIRECTION('',(0.E0,-1.E0,0.E0));
#506=AXIS2_PLACEMENT_3D('',#503,#504,#505);
#507=PLANE('',#506);
#508=ORIENTED_EDGE('',*,*,#482,.F.);
#509=ORIENTED_EDGE('',*,*,#498,.T.);
#510=EDGE_LOOP('',(#508,#509));
#511=FACE_OUTER_BOUND('',#510,.F.);
#512=ORIENTED_EDGE('',*,*,#272,.F.);
#513=ORIENTED_EDGE('',*,*,#290,.T.);
#514=EDGE_LOOP('',(#512,#513));
#515=FACE_BOUND('',#514,.F.);
#516=ADVANCED_FACE('',(#511,#515),#507,.F.);
#517=CLOSED_SHELL('',(#280,#294,#315,#334,#355,#373,#388,#404,#419,#432,#448,
#462,#474,#489,#502,#516));
#518=MANIFOLD_SOLID_BREP('',#517);
#520=DIMENSIONAL_EXPONENTS(0.E0,0.E0,0.E0,0.E0,0.E0,0.E0,0.E0);
#522=PLANE_ANGLE_MEASURE_WITH_UNIT(PLANE_ANGLE_MEASURE(1.745329251994E-2),#521);
#523=(CONVERSION_BASED_UNIT('DEGREE',#522)NAMED_UNIT(*)PLANE_ANGLE_UNIT());
#525=UNCERTAINTY_MEASURE_WITH_UNIT(LENGTH_MEASURE(2.409260386361E-2),#519,
'closure',
'Maximum model space distance between geometric entities at asserted connectivities');
#526=(GEOMETRIC_REPRESENTATION_CONTEXT(3)GLOBAL_UNCERTAINTY_ASSIGNED_CONTEXT((
#525))GLOBAL_UNIT_ASSIGNED_CONTEXT((#519,#523,#524))REPRESENTATION_CONTEXT
('ID1','3'));
#528=APPLICATION_CONTEXT(
'CONFIGURATION CONTROLLED 3D DESIGNS OF MECHANICAL PARTS AND ASSEMBLIES');
#529=APPLICATION_PROTOCOL_DEFINITION('international standard',
'config_control_design',1994,#528);
#530=DESIGN_CONTEXT('',#528,'design');
#531=MECHANICAL_CONTEXT('',#528,'mechanical');
#532=PRODUCT('PG__A_2016_10_21','PG__A_2016_10_21','NOT SPECIFIED',(#531));
#533=PRODUCT_DEFINITION_FORMATION_WITH_SPECIFIED_SOURCE('1','LAST_VERSION',#532,
.MADE.);
#537=PRODUCT_CATEGORY('part','');
#538=PRODUCT_RELATED_PRODUCT_CATEGORY('detail','',(#532));
#539=PRODUCT_CATEGORY_RELATIONSHIP('','',#537,#538);
#540=SECURITY_CLASSIFICATION_LEVEL('unclassified');
#541=SECURITY_CLASSIFICATION('','',#540);
#542=CC_DESIGN_SECURITY_CLASSIFICATION(#541,(#533));
#543=APPROVAL_STATUS('approved');
#544=APPROVAL(#543,'');
#545=CC_DESIGN_APPROVAL(#544,(#541,#533,#534));
#546=CALENDAR_DATE(116,9,8);
#547=COORDINATED_UNIVERSAL_TIME_OFFSET(2,0,.AHEAD.);
#548=LOCAL_TIME(7,11,1.8E1,#547);
#549=DATE_AND_TIME(#546,#548);
#550=APPROVAL_DATE_TIME(#549,#544);
#551=DATE_TIME_ROLE('creation_date');
#552=CC_DESIGN_DATE_AND_TIME_ASSIGNMENT(#549,#551,(#534));
#553=DATE_TIME_ROLE('classification_date');
#554=CC_DESIGN_DATE_AND_TIME_ASSIGNMENT(#549,#553,(#541));
#555=PERSON('UNSPECIFIED','UNSPECIFIED',$,$,$,$);
#556=ORGANIZATION('UNSPECIFIED','UNSPECIFIED','UNSPECIFIED');
#557=PERSON_AND_ORGANIZATION(#555,#556);
#558=APPROVAL_ROLE('approver');
#559=APPROVAL_PERSON_ORGANIZATION(#557,#544,#558);
#560=PERSON_AND_ORGANIZATION_ROLE('creator');
#561=CC_DESIGN_PERSON_AND_ORGANIZATION_ASSIGNMENT(#557,#560,(#533,#534));
#562=PERSON_AND_ORGANIZATION_ROLE('design_supplier');
#563=CC_DESIGN_PERSON_AND_ORGANIZATION_ASSIGNMENT(#557,#562,(#533));
#564=PERSON_AND_ORGANIZATION_ROLE('classification_officer');
#565=CC_DESIGN_PERSON_AND_ORGANIZATION_ASSIGNMENT(#557,#564,(#541));
#566=PERSON_AND_ORGANIZATION_ROLE('design_owner');
#567=CC_DESIGN_PERSON_AND_ORGANIZATION_ASSIGNMENT(#557,#566,(#532));
#5=CIRCLE('',#4,7.5115E1);
#14=CIRCLE('',#13,7.5115E1);
#28=B_SPLINE_CURVE_WITH_KNOTS('',3,(#19,#20,#21,#22,#23,#24,#25,#26,#27),
.UNSPECIFIED.,.F.,.F.,(4,1,1,1,1,1,4),(0.E0,1.666666666667E-1,3.333333333333E-1,
5.E-1,6.666666666667E-1,8.333333333333E-1,1.E0),.UNSPECIFIED.);
#41=CIRCLE('',#40,7.5115E1);
#55=B_SPLINE_CURVE_WITH_KNOTS('',3,(#46,#47,#48,#49,#50,#51,#52,#53,#54),
.UNSPECIFIED.,.F.,.F.,(4,1,1,1,1,1,4),(0.E0,1.666666666667E-1,3.333333333333E-1,
5.E-1,6.666666666667E-1,8.333333333333E-1,1.E0),.UNSPECIFIED.);
#69=B_SPLINE_CURVE_WITH_KNOTS('',3,(#60,#61,#62,#63,#64,#65,#66,#67,#68),
.UNSPECIFIED.,.F.,.F.,(4,1,1,1,1,1,4),(0.E0,1.666666666667E-1,3.333333333333E-1,
5.E-1,6.666666666667E-1,8.333333333333E-1,1.E0),.UNSPECIFIED.);
#74=CIRCLE('',#73,7.75E1);
#84=B_SPLINE_CURVE_WITH_KNOTS('',3,(#75,#76,#77,#78,#79,#80,#81,#82,#83),
.UNSPECIFIED.,.F.,.F.,(4,1,1,1,1,1,4),(0.E0,1.666666666667E-1,3.333333333333E-1,
5.E-1,6.666666666667E-1,8.333333333333E-1,1.E0),.UNSPECIFIED.);
#94=B_SPLINE_CURVE_WITH_KNOTS('',3,(#85,#86,#87,#88,#89,#90,#91,#92,#93),
.UNSPECIFIED.,.F.,.F.,(4,1,1,1,1,1,4),(0.E0,1.666666666667E-1,3.333333333333E-1,
5.E-1,6.666666666667E-1,8.333333333333E-1,1.E0),.UNSPECIFIED.);
#104=B_SPLINE_CURVE_WITH_KNOTS('',3,(#95,#96,#97,#98,#99,#100,#101,#102,#103),
.UNSPECIFIED.,.F.,.F.,(4,1,1,1,1,1,4),(0.E0,1.666666666667E-1,3.333333333333E-1,
5.E-1,6.666666666667E-1,8.333333333333E-1,1.E0),.UNSPECIFIED.);
#117=CIRCLE('',#116,7.75E1);
#135=B_SPLINE_CURVE_WITH_KNOTS('',3,(#126,#127,#128,#129,#130,#131,#132,#133,
#134),.UNSPECIFIED.,.F.,.F.,(4,1,1,1,1,1,4),(0.E0,1.666666666667E-1,
3.333333333333E-1,5.E-1,6.666666666667E-1,8.333333333333E-1,1.E0),
.UNSPECIFIED.);
#145=B_SPLINE_CURVE_WITH_KNOTS('',3,(#136,#137,#138,#139,#140,#141,#142,#143,
#144),.UNSPECIFIED.,.F.,.F.,(4,1,1,1,1,1,4),(0.E0,1.666666666667E-1,
3.333333333333E-1,5.E-1,6.666666666667E-1,8.333333333333E-1,1.E0),
.UNSPECIFIED.);
#150=CIRCLE('',#149,7.5115E1);
#155=CIRCLE('',#154,7.5715E1);
#164=CIRCLE('',#163,7.5715E1);
#173=CIRCLE('',#172,7.706323571888E1);
#178=CIRCLE('',#177,7.706323571888E1);
#183=CIRCLE('',#182,7.75E1);
#192=CIRCLE('',#191,7.75E1);
#205=CIRCLE('',#204,7.706323571888E1);
#214=CIRCLE('',#213,7.706323571888E1);
#219=CIRCLE('',#218,7.5715E1);
#224=CIRCLE('',#223,7.5715E1);
#270=EDGE_CURVE('',#227,#228,#9,.T.);
#272=EDGE_CURVE('',#228,#244,#219,.T.);
#274=EDGE_CURVE('',#243,#244,#18,.T.);
#276=EDGE_CURVE('',#227,#243,#5,.T.);
#287=EDGE_CURVE('',#227,#243,#14,.T.);
#290=EDGE_CURVE('',#228,#244,#224,.T.);
#300=EDGE_CURVE('',#261,#264,#28,.T.);
#302=EDGE_CURVE('',#261,#243,#32,.T.);
#305=EDGE_CURVE('',#240,#227,#36,.T.);
#307=EDGE_CURVE('',#240,#256,#41,.T.);
#309=EDGE_CURVE('',#256,#262,#45,.T.);
#311=EDGE_CURVE('',#264,#262,#55,.T.);
#321=EDGE_CURVE('',#257,#258,#69,.T.);
#323=EDGE_CURVE('',#258,#260,#125,.T.);
#325=EDGE_CURVE('',#260,#261,#135,.T.);
#328=EDGE_CURVE('',#263,#264,#59,.T.);
#330=EDGE_CURVE('',#263,#257,#94,.T.);
#341=EDGE_CURVE('',#248,#257,#121,.T.);
#343=EDGE_CURVE('',#232,#248,#74,.T.);
#345=EDGE_CURVE('',#232,#234,#112,.T.);
#347=EDGE_CURVE('',#234,#251,#183,.T.);
#349=EDGE_CURVE('',#259,#251,#108,.T.);
#351=EDGE_CURVE('',#258,#259,#84,.T.);
#362=EDGE_CURVE('',#259,#263,#104,.T.);
#365=EDGE_CURVE('',#234,#251,#192,.T.);
#368=EDGE_CURVE('',#232,#248,#117,.T.);
#383=EDGE_CURVE('',#262,#260,#145,.T.);
#397=EDGE_CURVE('',#240,#256,#150,.T.);
#410=EDGE_CURVE('',#239,#240,#159,.T.);
#413=EDGE_CURVE('',#255,#256,#168,.T.);
#415=EDGE_CURVE('',#239,#255,#155,.T.);
#426=EDGE_CURVE('',#239,#255,#164,.T.);
#438=EDGE_CURVE('',#236,#252,#173,.T.);
#440=EDGE_CURVE('',#236,#252,#178,.T.);
#454=EDGE_CURVE('',#234,#236,#187,.T.);
#457=EDGE_CURVE('',#251,#252,#196,.T.);
#480=EDGE_CURVE('',#231,#232,#200,.T.);
#482=EDGE_CURVE('',#231,#247,#205,.T.);
#484=EDGE_CURVE('',#247,#248,#209,.T.);
#498=EDGE_CURVE('',#231,#247,#214,.T.);
#519=(LENGTH_UNIT()NAMED_UNIT(*)SI_UNIT(.MILLI.,.METRE.));
#521=(NAMED_UNIT(*)PLANE_ANGLE_UNIT()SI_UNIT($,.RADIAN.));
#524=(NAMED_UNIT(*)SI_UNIT($,.STERADIAN.)SOLID_ANGLE_UNIT());
#527=ADVANCED_BREP_SHAPE_REPRESENTATION('',(#518),#526);
#534=PRODUCT_DEFINITION('design','',#533,#530);
#535=PRODUCT_DEFINITION_SHAPE('','SHAPE FOR PG__A_2016_10_21.',#534);
#536=SHAPE_DEFINITION_REPRESENTATION(#535,#527);
ENDSEC;
END-ISO-10303-21;
