ISO-10303-21;
HEADER;
FILE_DESCRIPTION((''),'2;1');
FILE_NAME('PG__A_2016_10_21','2016-08-09T',('deusss58'),(''),
'PRO/ENGINEER BY PARAMETRIC TECHNOLOGY CORPORATION, 2014430',
'PRO/ENGINEER BY PARAMETRIC TECHNOLOGY CORPORATION, 2014430','');
FILE_SCHEMA(('CONFIG_CONTROL_DESIGN'));
ENDSEC;
DATA;
#1=CARTESIAN_POINT('',(0.E0,0.E0,3.94E1));
#2=DIRECTION('',(0.E0,0.E0,-1.E0));
#3=DIRECTION('',(0.E0,-1.E0,0.E0));
#4=AXIS2_PLACEMENT_3D('',#1,#2,#3);
#6=DIRECTION('',(0.E0,-7.071067811865E-1,7.071067811866E-1));
#7=VECTOR('',#6,8.485281374238E-1);
#8=CARTESIAN_POINT('',(0.E0,-7.5115E1,3.94E1));
#9=LINE('',#8,#7);
#10=CARTESIAN_POINT('',(0.E0,0.E0,3.94E1));
#11=DIRECTION('',(0.E0,0.E0,1.E0));
#12=DIRECTION('',(0.E0,-1.E0,0.E0));
#13=AXIS2_PLACEMENT_3D('',#10,#11,#12);
#15=DIRECTION('',(0.E0,7.071067811865E-1,7.071067811866E-1));
#16=VECTOR('',#15,8.485281374238E-1);
#17=CARTESIAN_POINT('',(-1.667888049894E-14,7.5115E1,3.94E1));
#18=LINE('',#17,#16);
#19=CARTESIAN_POINT('',(-1.629898732842E-14,7.5115E1,4.E0));
#20=CARTESIAN_POINT('',(3.543307917989E-1,7.5115E1,4.E0));
#21=CARTESIAN_POINT('',(1.037823117167E0,7.511013668624E1,3.910401665129E0));
#22=CARTESIAN_POINT('',(2.030837198141E0,7.508944654896E1,3.500347174395E0));
#23=CARTESIAN_POINT('',(2.861154696049E0,7.506169852252E1,2.859913057662E0));
#24=CARTESIAN_POINT('',(3.508769175075E0,7.503362091455E1,2.016889926501E0));
#25=CARTESIAN_POINT('',(3.909873717331E0,7.501330471399E1,1.035218823035E0));
#26=CARTESIAN_POINT('',(4.000000002139E0,7.500842102695E1,3.532658694692E-1));
#27=CARTESIAN_POINT('',(4.000000002139E0,7.500842102695E1,-5.154079980676E-8));
#29=DIRECTION('',(0.E0,0.E0,1.E0));
#30=VECTOR('',#29,3.54E1);
#31=CARTESIAN_POINT('',(-1.629898732842E-14,7.5115E1,4.E0));
#32=LINE('',#31,#30);
#33=DIRECTION('',(0.E0,0.E0,1.E0));
#34=VECTOR('',#33,7.88E1);
#35=CARTESIAN_POINT('',(0.E0,-7.5115E1,-3.94E1));
#36=LINE('',#35,#34);
#37=CARTESIAN_POINT('',(0.E0,0.E0,-3.94E1));
#38=DIRECTION('',(0.E0,0.E0,1.E0));
#39=DIRECTION('',(0.E0,-1.E0,0.E0));
#40=AXIS2_PLACEMENT_3D('',#37,#38,#39);
#42=DIRECTION('',(0.E0,0.E0,1.E0));
#43=VECTOR('',#42,3.54E1);
#44=CARTESIAN_POINT('',(-1.667888049894E-14,7.5115E1,-3.94E1));
#45=LINE('',#44,#43);
#46=CARTESIAN_POINT('',(4.000000002139E0,7.500842102695E1,-5.154079980676E-8));
#47=CARTESIAN_POINT('',(4.000000002139E0,7.500842102695E1,-3.016280754519E-1));
#48=CARTESIAN_POINT('',(3.934198114398E0,7.501198082057E1,-8.887301951314E-1));
#49=CARTESIAN_POINT('',(3.635503788369E0,7.502728685956E1,-1.747062881946E0));
#50=CARTESIAN_POINT('',(3.162211584581E0,7.504912250184E1,-2.504664095772E0));
#51=CARTESIAN_POINT('',(2.515587844158E0,7.507394512632E1,-3.152803862014E0));
#52=CARTESIAN_POINT('',(1.764991791914E0,7.509575828835E1,-3.627472565737E0));
#53=CARTESIAN_POINT('',(8.911660611520E-1,7.511146696471E1,-3.934707338659E0));
#54=CARTESIAN_POINT('',(3.023043032399E-1,7.5115E1,-4.E0));
#55=CARTESIAN_POINT('',(-2.876399821077E-14,7.5115E1,-4.E0));
#57=DIRECTION('',(8.956054930304E-10,-1.E0,-2.158067977290E-8));
#58=VECTOR('',#57,2.388284329283E0);
#59=CARTESIAN_POINT('',(4.E0,7.739670535624E1,0.E0));
#60=LINE('',#59,#58);
#61=CARTESIAN_POINT('',(1.350847629144E-13,7.75E1,4.E0));
#62=CARTESIAN_POINT('',(-3.542683078141E-1,7.75E1,4.E0));
#63=CARTESIAN_POINT('',(-1.037859305909E0,7.749530439682E1,3.910821073836E0));
#64=CARTESIAN_POINT('',(-2.036269801312E0,7.747509704255E1,3.497418347338E0));
#65=CARTESIAN_POINT('',(-2.863519534463E0,7.744824129525E1,2.857223343815E0));
#66=CARTESIAN_POINT('',(-3.510401771852E0,7.742105375535E1,2.014010271491E0));
#67=CARTESIAN_POINT('',(-3.910193435164E0,7.740142022080E1,1.033385766955E0));
#68=CARTESIAN_POINT('',(-4.E0,7.739670535624E1,3.525610192077E-1));
#69=CARTESIAN_POINT('',(-4.E0,7.739670535624E1,0.E0));
#71=CARTESIAN_POINT('',(0.E0,0.E0,3.88E1));
#72=DIRECTION('',(0.E0,0.E0,-1.E0));
#73=DIRECTION('',(0.E0,-1.E0,0.E0));
#74=AXIS2_PLACEMENT_3D('',#71,#72,#73);
#76=CARTESIAN_POINT('',(-4.E0,7.739670535624E1,0.E0));
#77=CARTESIAN_POINT('',(-4.E0,7.739670535624E1,-3.533469147046E-1));
#78=CARTESIAN_POINT('',(-3.909869139956E0,7.740143921667E1,-1.035398395094E0));
#79=CARTESIAN_POINT('',(-3.508464043111E0,7.742114073248E1,-2.017346960134E0));
#80=CARTESIAN_POINT('',(-2.861281358878E0,7.744833640913E1,-2.859815613495E0));
#81=CARTESIAN_POINT('',(-2.030132939239E0,7.747525224465E1,-3.500783452510E0));
#82=CARTESIAN_POINT('',(-1.037746023876E0,7.749528478249E1,-3.910355515426E0));
#83=CARTESIAN_POINT('',(-3.542945197524E-1,7.75E1,-4.E0));
#84=CARTESIAN_POINT('',(-1.222214323320E-13,7.75E1,-4.E0));
#86=CARTESIAN_POINT('',(4.E0,7.739670535624E1,0.E0));
#87=CARTESIAN_POINT('',(4.E0,7.739670535624E1,3.532756263971E-1));
#88=CARTESIAN_POINT('',(3.909867785950E0,7.740143863615E1,1.035241677199E0));
#89=CARTESIAN_POINT('',(3.508762055273E0,7.742112811827E1,2.016900112604E0));
#90=CARTESIAN_POINT('',(2.861150479723E0,7.744833997956E1,2.859916640677E0));
#91=CARTESIAN_POINT('',(2.030839491726E0,7.747523299532E1,3.500344382701E0));
#92=CARTESIAN_POINT('',(1.037839368045E0,7.749528609381E1,3.910396973517E0));
#93=CARTESIAN_POINT('',(3.543392847882E-1,7.75E1,4.E0));
#94=CARTESIAN_POINT('',(1.350847629144E-13,7.75E1,4.E0));
#96=CARTESIAN_POINT('',(-1.222214323320E-13,7.75E1,-4.E0));
#97=CARTESIAN_POINT('',(3.023113011034E-1,7.75E1,-4.E0));
#98=CARTESIAN_POINT('',(8.911800274700E-1,7.749657551303E1,-3.934704063384E0));
#99=CARTESIAN_POINT('',(1.764996655461E0,7.748135038711E1,-3.627469374773E0));
#100=CARTESIAN_POINT('',(2.515586281042E0,7.746020917832E1,-3.152804462109E0));
#101=CARTESIAN_POINT('',(3.162206275797E0,7.743615166191E1,-2.504670242681E0));
#102=CARTESIAN_POINT('',(3.635498064097E0,7.741498939627E1,-1.747073637489E0));
#103=CARTESIAN_POINT('',(3.934194399623E0,7.740015548646E1,-8.887475578672E-1));
#104=CARTESIAN_POINT('',(4.E0,7.739670535624E1,-3.016354268053E-1));
#105=CARTESIAN_POINT('',(4.E0,7.739670535624E1,0.E0));
#107=DIRECTION('',(0.E0,0.E0,-1.E0));
#108=VECTOR('',#107,3.48E1);
#109=CARTESIAN_POINT('',(-1.222214323320E-13,7.75E1,-4.E0));
#110=LINE('',#109,#108);
#111=DIRECTION('',(0.E0,0.E0,-1.E0));
#112=VECTOR('',#111,7.76E1);
#113=CARTESIAN_POINT('',(0.E0,-7.75E1,3.88E1));
#114=LINE('',#113,#112);
#115=CARTESIAN_POINT('',(0.E0,0.E0,3.88E1));
#116=DIRECTION('',(0.E0,0.E0,1.E0));
#117=DIRECTION('',(0.E0,-1.E0,0.E0));
#118=AXIS2_PLACEMENT_3D('',#115,#116,#117);
#120=DIRECTION('',(0.E0,0.E0,-1.E0));
#121=VECTOR('',#120,3.48E1);
#122=CARTESIAN_POINT('',(-1.720845688169E-14,7.75E1,3.88E1));
#123=LINE('',#122,#121);
#124=DIRECTION('',(-1.014366785427E-8,-1.E0,8.831930099547E-8));
#125=VECTOR('',#124,2.388284332795E0);
#126=CARTESIAN_POINT('',(-4.E0,7.739670535624E1,0.E0));
#127=LINE('',#126,#125);
#128=CARTESIAN_POINT('',(-4.000000024226E0,7.500842102344E1,2.109316031775E-7));
#129=CARTESIAN_POINT('',(-4.000000024226E0,7.500842102344E1,3.525524342308E-1));
#130=CARTESIAN_POINT('',(-3.910198591558E0,7.501328575485E1,1.033366025297E0));
#131=CARTESIAN_POINT('',(-3.510407680073E0,7.503354424140E1,2.014001895694E0));
#132=CARTESIAN_POINT('',(-2.863523010151E0,7.506159672605E1,2.857220371423E0));
#133=CARTESIAN_POINT('',(-2.036267403484E0,7.508930627763E1,3.497421137425E0));
#134=CARTESIAN_POINT('',(-1.037843390984E0,7.511015556592E1,3.910825670991E0));
#135=CARTESIAN_POINT('',(-3.542599733120E-1,7.5115E1,4.E0));
#136=CARTESIAN_POINT('',(-1.629898732842E-14,7.5115E1,4.E0));
#138=CARTESIAN_POINT('',(-2.876399821077E-14,7.5115E1,-4.E0));
#139=CARTESIAN_POINT('',(-3.542856462822E-1,7.5115E1,-4.E0));
#140=CARTESIAN_POINT('',(-1.037728842631E0,7.511013534418E1,-3.910360408540E0));
#141=CARTESIAN_POINT('',(-2.030129660869E0,7.508946643742E1,-3.500786820597E0));
#142=CARTESIAN_POINT('',(-2.861284923982E0,7.506169486486E1,-2.859812713929E0));
#143=CARTESIAN_POINT('',(-3.508470890634E0,7.503363394327E1,-2.017337333036E0));
#144=CARTESIAN_POINT('',(-3.909875029251E0,7.501330531649E1,-1.035375734673E0));
#145=CARTESIAN_POINT('',(-4.000000024226E0,7.500842102344E1,
-3.533373146574E-1));
#146=CARTESIAN_POINT('',(-4.000000024226E0,7.500842102344E1,2.109316031775E-7));
#148=CARTESIAN_POINT('',(0.E0,0.E0,-3.94E1));
#149=DIRECTION('',(0.E0,0.E0,-1.E0));
#150=DIRECTION('',(0.E0,-1.E0,0.E0));
#151=AXIS2_PLACEMENT_3D('',#148,#149,#150);
#153=CARTESIAN_POINT('',(0.E0,0.E0,-4.E1));
#154=DIRECTION('',(0.E0,0.E0,-1.E0));
#155=DIRECTION('',(0.E0,-1.E0,0.E0));
#156=AXIS2_PLACEMENT_3D('',#153,#154,#155);
#158=DIRECTION('',(0.E0,7.071067811865E-1,7.071067811866E-1));
#159=VECTOR('',#158,8.485281374238E-1);
#160=CARTESIAN_POINT('',(0.E0,-7.5715E1,-4.E1));
#161=LINE('',#160,#159);
#162=CARTESIAN_POINT('',(0.E0,0.E0,-4.E1));
#163=DIRECTION('',(0.E0,0.E0,1.E0));
#164=DIRECTION('',(0.E0,-1.E0,0.E0));
#165=AXIS2_PLACEMENT_3D('',#162,#163,#164);
#167=DIRECTION('',(0.E0,-7.071067811865E-1,7.071067811866E-1));
#168=VECTOR('',#167,8.485281374238E-1);
#169=CARTESIAN_POINT('',(-1.120807150793E-14,7.5715E1,-4.E1));
#170=LINE('',#169,#168);
#171=CARTESIAN_POINT('',(0.E0,0.E0,-4.E1));
#172=DIRECTION('',(0.E0,0.E0,-1.E0));
#173=DIRECTION('',(0.E0,-1.E0,0.E0));
#174=AXIS2_PLACEMENT_3D('',#171,#172,#173);
#176=CARTESIAN_POINT('',(0.E0,0.E0,-4.E1));
#177=DIRECTION('',(0.E0,0.E0,1.E0));
#178=DIRECTION('',(0.E0,-1.E0,0.E0));
#179=AXIS2_PLACEMENT_3D('',#176,#177,#178);
#181=CARTESIAN_POINT('',(0.E0,0.E0,-3.88E1));
#182=DIRECTION('',(0.E0,0.E0,-1.E0));
#183=DIRECTION('',(0.E0,-1.E0,0.E0));
#184=AXIS2_PLACEMENT_3D('',#181,#182,#183);
#186=DIRECTION('',(0.E0,3.420201433257E-1,-9.396926207859E-1));
#187=VECTOR('',#186,1.277013326971E0);
#188=CARTESIAN_POINT('',(0.E0,-7.75E1,-3.88E1));
#189=LINE('',#188,#187);
#190=CARTESIAN_POINT('',(0.E0,0.E0,-3.88E1));
#191=DIRECTION('',(0.E0,0.E0,1.E0));
#192=DIRECTION('',(0.E0,-1.E0,0.E0));
#193=AXIS2_PLACEMENT_3D('',#190,#191,#192);
#195=DIRECTION('',(0.E0,-3.420201433257E-1,-9.396926207859E-1));
#196=VECTOR('',#195,1.277013326971E0);
#197=CARTESIAN_POINT('',(-1.720845688169E-14,7.75E1,-3.88E1));
#198=LINE('',#197,#196);
#199=DIRECTION('',(0.E0,-3.420201433257E-1,-9.396926207859E-1));
#200=VECTOR('',#199,1.277013326971E0);
#201=CARTESIAN_POINT('',(0.E0,-7.706323571888E1,4.E1));
#202=LINE('',#201,#200);
#203=CARTESIAN_POINT('',(0.E0,0.E0,4.E1));
#204=DIRECTION('',(0.E0,0.E0,1.E0));
#205=DIRECTION('',(0.E0,-1.E0,0.E0));
#206=AXIS2_PLACEMENT_3D('',#203,#204,#205);
#208=DIRECTION('',(0.E0,3.420201433257E-1,-9.396926207859E-1));
#209=VECTOR('',#208,1.277013326971E0);
#210=CARTESIAN_POINT('',(-1.140765048630E-14,7.706323571888E1,4.E1));
#211=LINE('',#210,#209);
#212=CARTESIAN_POINT('',(0.E0,0.E0,4.E1));
#213=DIRECTION('',(0.E0,0.E0,-1.E0));
#214=DIRECTION('',(0.E0,-1.E0,0.E0));
#215=AXIS2_PLACEMENT_3D('',#212,#213,#214);
#217=CARTESIAN_POINT('',(0.E0,0.E0,4.E1));
#218=DIRECTION('',(0.E0,0.E0,-1.E0));
#219=DIRECTION('',(0.E0,-1.E0,0.E0));
#220=AXIS2_PLACEMENT_3D('',#217,#218,#219);
#222=CARTESIAN_POINT('',(0.E0,0.E0,4.E1));
#223=DIRECTION('',(0.E0,0.E0,1.E0));
#224=DIRECTION('',(0.E0,-1.E0,0.E0));
#225=AXIS2_PLACEMENT_3D('',#222,#223,#224);
#227=CARTESIAN_POINT('',(0.E0,-7.5115E1,3.94E1));
#228=CARTESIAN_POINT('',(0.E0,-7.5715E1,4.E1));
#229=VERTEX_POINT('',#227);
#230=VERTEX_POINT('',#228);
#231=CARTESIAN_POINT('',(0.E0,-7.706323571888E1,4.E1));
#232=CARTESIAN_POINT('',(0.E0,-7.75E1,3.88E1));
#233=VERTEX_POINT('',#231);
#234=VERTEX_POINT('',#232);
#235=CARTESIAN_POINT('',(0.E0,-7.75E1,-3.88E1));
#236=VERTEX_POINT('',#235);
#237=CARTESIAN_POINT('',(0.E0,-7.706323571888E1,-4.E1));
#238=VERTEX_POINT('',#237);
#239=CARTESIAN_POINT('',(0.E0,-7.5715E1,-4.E1));
#240=CARTESIAN_POINT('',(0.E0,-7.5115E1,-3.94E1));
#241=VERTEX_POINT('',#239);
#242=VERTEX_POINT('',#240);
#243=CARTESIAN_POINT('',(-1.667888049894E-14,7.5115E1,3.94E1));
#244=CARTESIAN_POINT('',(-1.120807150793E-14,7.5715E1,4.E1));
#245=VERTEX_POINT('',#243);
#246=VERTEX_POINT('',#244);
#247=CARTESIAN_POINT('',(-1.140765048630E-14,7.706323571888E1,4.E1));
#248=CARTESIAN_POINT('',(-1.720845688169E-14,7.75E1,3.88E1));
#249=VERTEX_POINT('',#247);
#250=VERTEX_POINT('',#248);
#251=CARTESIAN_POINT('',(-1.720845688169E-14,7.75E1,-3.88E1));
#252=CARTESIAN_POINT('',(-1.140765048630E-14,7.706323571888E1,-4.E1));
#253=VERTEX_POINT('',#251);
#254=VERTEX_POINT('',#252);
#255=CARTESIAN_POINT('',(-1.120807150793E-14,7.5715E1,-4.E1));
#256=CARTESIAN_POINT('',(-1.667888049894E-14,7.5115E1,-3.94E1));
#257=VERTEX_POINT('',#255);
#258=VERTEX_POINT('',#256);
#259=VERTEX_POINT('',#61);
#260=VERTEX_POINT('',#69);
#261=VERTEX_POINT('',#84);
#262=VERTEX_POINT('',#128);
#263=VERTEX_POINT('',#136);
#264=VERTEX_POINT('',#138);
#265=VERTEX_POINT('',#86);
#266=VERTEX_POINT('',#27);
#267=CARTESIAN_POINT('',(0.E0,0.E0,3.97E1));
#268=DIRECTION('',(0.E0,0.E0,1.E0));
#269=DIRECTION('',(0.E0,1.E0,0.E0));
#270=AXIS2_PLACEMENT_3D('',#267,#268,#269);
#271=CONICAL_SURFACE('',#270,7.5415E1,4.5E1);
#273=ORIENTED_EDGE('',*,*,#272,.T.);
#275=ORIENTED_EDGE('',*,*,#274,.T.);
#277=ORIENTED_EDGE('',*,*,#276,.F.);
#279=ORIENTED_EDGE('',*,*,#278,.F.);
#280=EDGE_LOOP('',(#273,#275,#277,#279));
#281=FACE_OUTER_BOUND('',#280,.F.);
#282=ADVANCED_FACE('',(#281),#271,.F.);
#283=CARTESIAN_POINT('',(0.E0,0.E0,3.97E1));
#284=DIRECTION('',(0.E0,0.E0,1.E0));
#285=DIRECTION('',(0.E0,1.E0,0.E0));
#286=AXIS2_PLACEMENT_3D('',#283,#284,#285);
#287=CONICAL_SURFACE('',#286,7.5415E1,4.5E1);
#288=ORIENTED_EDGE('',*,*,#272,.F.);
#290=ORIENTED_EDGE('',*,*,#289,.T.);
#291=ORIENTED_EDGE('',*,*,#276,.T.);
#293=ORIENTED_EDGE('',*,*,#292,.F.);
#294=EDGE_LOOP('',(#288,#290,#291,#293));
#295=FACE_OUTER_BOUND('',#294,.F.);
#296=ADVANCED_FACE('',(#295),#287,.F.);
#297=CARTESIAN_POINT('',(0.E0,0.E0,4.4E1));
#298=DIRECTION('',(0.E0,0.E0,-1.E0));
#299=DIRECTION('',(0.E0,-1.E0,0.E0));
#300=AXIS2_PLACEMENT_3D('',#297,#298,#299);
#301=CYLINDRICAL_SURFACE('',#300,7.5115E1);
#303=ORIENTED_EDGE('',*,*,#302,.F.);
#305=ORIENTED_EDGE('',*,*,#304,.T.);
#306=ORIENTED_EDGE('',*,*,#289,.F.);
#308=ORIENTED_EDGE('',*,*,#307,.F.);
#310=ORIENTED_EDGE('',*,*,#309,.T.);
#312=ORIENTED_EDGE('',*,*,#311,.T.);
#314=ORIENTED_EDGE('',*,*,#313,.F.);
#315=EDGE_LOOP('',(#303,#305,#306,#308,#310,#312,#314));
#316=FACE_OUTER_BOUND('',#315,.F.);
#317=ADVANCED_FACE('',(#316),#301,.F.);
#318=CARTESIAN_POINT('',(0.E0,7.75E1,0.E0));
#319=DIRECTION('',(0.E0,-1.E0,0.E0));
#320=DIRECTION('',(1.E0,0.E0,0.E0));
#321=AXIS2_PLACEMENT_3D('',#318,#319,#320);
#322=CYLINDRICAL_SURFACE('',#321,4.E0);
#324=ORIENTED_EDGE('',*,*,#323,.T.);
#326=ORIENTED_EDGE('',*,*,#325,.T.);
#328=ORIENTED_EDGE('',*,*,#327,.T.);
#329=ORIENTED_EDGE('',*,*,#302,.T.);
#331=ORIENTED_EDGE('',*,*,#330,.F.);
#333=ORIENTED_EDGE('',*,*,#332,.T.);
#334=EDGE_LOOP('',(#324,#326,#328,#329,#331,#333));
#335=FACE_OUTER_BOUND('',#334,.F.);
#336=ADVANCED_FACE('',(#335),#322,.F.);
#337=CARTESIAN_POINT('',(0.E0,0.E0,4.4E1));
#338=DIRECTION('',(0.E0,0.E0,-1.E0));
#339=DIRECTION('',(0.E0,-1.E0,0.E0));
#340=AXIS2_PLACEMENT_3D('',#337,#338,#339);
#341=CYLINDRICAL_SURFACE('',#340,7.75E1);
#342=ORIENTED_EDGE('',*,*,#323,.F.);
#344=ORIENTED_EDGE('',*,*,#343,.F.);
#346=ORIENTED_EDGE('',*,*,#345,.F.);
#348=ORIENTED_EDGE('',*,*,#347,.T.);
#350=ORIENTED_EDGE('',*,*,#349,.T.);
#352=ORIENTED_EDGE('',*,*,#351,.F.);
#354=ORIENTED_EDGE('',*,*,#353,.F.);
#355=EDGE_LOOP('',(#342,#344,#346,#348,#350,#352,#354));
#356=FACE_OUTER_BOUND('',#355,.F.);
#357=ADVANCED_FACE('',(#356),#341,.T.);
#358=CARTESIAN_POINT('',(0.E0,0.E0,4.4E1));
#359=DIRECTION('',(0.E0,0.E0,-1.E0));
#360=DIRECTION('',(0.E0,-1.E0,0.E0));
#361=AXIS2_PLACEMENT_3D('',#358,#359,#360);
#362=CYLINDRICAL_SURFACE('',#361,7.75E1);
#363=ORIENTED_EDGE('',*,*,#332,.F.);
#365=ORIENTED_EDGE('',*,*,#364,.F.);
#366=ORIENTED_EDGE('',*,*,#351,.T.);
#368=ORIENTED_EDGE('',*,*,#367,.F.);
#369=ORIENTED_EDGE('',*,*,#347,.F.);
#371=ORIENTED_EDGE('',*,*,#370,.T.);
#372=ORIENTED_EDGE('',*,*,#343,.T.);
#373=EDGE_LOOP('',(#363,#365,#366,#368,#369,#371,#372));
#374=FACE_OUTER_BOUND('',#373,.F.);
#375=ADVANCED_FACE('',(#374),#362,.T.);
#376=CARTESIAN_POINT('',(0.E0,7.75E1,0.E0));
#377=DIRECTION('',(0.E0,-1.E0,0.E0));
#378=DIRECTION('',(1.E0,0.E0,0.E0));
#379=AXIS2_PLACEMENT_3D('',#376,#377,#378);
#380=CYLINDRICAL_SURFACE('',#379,4.E0);
#381=ORIENTED_EDGE('',*,*,#353,.T.);
#382=ORIENTED_EDGE('',*,*,#364,.T.);
#383=ORIENTED_EDGE('',*,*,#330,.T.);
#384=ORIENTED_EDGE('',*,*,#313,.T.);
#386=ORIENTED_EDGE('',*,*,#385,.T.);
#387=ORIENTED_EDGE('',*,*,#325,.F.);
#388=EDGE_LOOP('',(#381,#382,#383,#384,#386,#387));
#389=FACE_OUTER_BOUND('',#388,.F.);
#390=ADVANCED_FACE('',(#389),#380,.F.);
#391=CARTESIAN_POINT('',(0.E0,0.E0,4.4E1));
#392=DIRECTION('',(0.E0,0.E0,-1.E0));
#393=DIRECTION('',(0.E0,-1.E0,0.E0));
#394=AXIS2_PLACEMENT_3D('',#391,#392,#393);
#395=CYLINDRICAL_SURFACE('',#394,7.5115E1);
#396=ORIENTED_EDGE('',*,*,#327,.F.);
#397=ORIENTED_EDGE('',*,*,#385,.F.);
#398=ORIENTED_EDGE('',*,*,#311,.F.);
#400=ORIENTED_EDGE('',*,*,#399,.F.);
#401=ORIENTED_EDGE('',*,*,#307,.T.);
#402=ORIENTED_EDGE('',*,*,#278,.T.);
#403=ORIENTED_EDGE('',*,*,#304,.F.);
#404=EDGE_LOOP('',(#396,#397,#398,#400,#401,#402,#403));
#405=FACE_OUTER_BOUND('',#404,.F.);
#406=ADVANCED_FACE('',(#405),#395,.F.);
#407=CARTESIAN_POINT('',(0.E0,0.E0,-3.97E1));
#408=DIRECTION('',(0.E0,0.E0,-1.E0));
#409=DIRECTION('',(0.E0,-1.E0,0.E0));
#410=AXIS2_PLACEMENT_3D('',#407,#408,#409);
#411=CONICAL_SURFACE('',#410,7.5415E1,4.5E1);
#413=ORIENTED_EDGE('',*,*,#412,.T.);
#414=ORIENTED_EDGE('',*,*,#399,.T.);
#416=ORIENTED_EDGE('',*,*,#415,.F.);
#418=ORIENTED_EDGE('',*,*,#417,.F.);
#419=EDGE_LOOP('',(#413,#414,#416,#418));
#420=FACE_OUTER_BOUND('',#419,.F.);
#421=ADVANCED_FACE('',(#420),#411,.F.);
#422=CARTESIAN_POINT('',(0.E0,0.E0,-3.97E1));
#423=DIRECTION('',(0.E0,0.E0,-1.E0));
#424=DIRECTION('',(0.E0,-1.E0,0.E0));
#425=AXIS2_PLACEMENT_3D('',#422,#423,#424);
#426=CONICAL_SURFACE('',#425,7.5415E1,4.5E1);
#427=ORIENTED_EDGE('',*,*,#412,.F.);
#429=ORIENTED_EDGE('',*,*,#428,.T.);
#430=ORIENTED_EDGE('',*,*,#415,.T.);
#431=ORIENTED_EDGE('',*,*,#309,.F.);
#432=EDGE_LOOP('',(#427,#429,#430,#431));
#433=FACE_OUTER_BOUND('',#432,.F.);
#434=ADVANCED_FACE('',(#433),#426,.F.);
#435=CARTESIAN_POINT('',(0.E0,0.E0,-4.E1));
#436=DIRECTION('',(0.E0,0.E0,-1.E0));
#437=DIRECTION('',(0.E0,-1.E0,0.E0));
#438=AXIS2_PLACEMENT_3D('',#435,#436,#437);
#439=PLANE('',#438);
#441=ORIENTED_EDGE('',*,*,#440,.F.);
#443=ORIENTED_EDGE('',*,*,#442,.T.);
#444=EDGE_LOOP('',(#441,#443));
#445=FACE_OUTER_BOUND('',#444,.F.);
#446=ORIENTED_EDGE('',*,*,#428,.F.);
#447=ORIENTED_EDGE('',*,*,#417,.T.);
#448=EDGE_LOOP('',(#446,#447));
#449=FACE_BOUND('',#448,.F.);
#450=ADVANCED_FACE('',(#445,#449),#439,.T.);
#451=CARTESIAN_POINT('',(0.E0,0.E0,-3.94E1));
#452=DIRECTION('',(0.E0,0.E0,1.E0));
#453=DIRECTION('',(0.E0,1.E0,0.E0));
#454=AXIS2_PLACEMENT_3D('',#451,#452,#453);
#455=CONICAL_SURFACE('',#454,7.728161785944E1,2.E1);
#457=ORIENTED_EDGE('',*,*,#456,.T.);
#458=ORIENTED_EDGE('',*,*,#440,.T.);
#460=ORIENTED_EDGE('',*,*,#459,.F.);
#461=ORIENTED_EDGE('',*,*,#349,.F.);
#462=EDGE_LOOP('',(#457,#458,#460,#461));
#463=FACE_OUTER_BOUND('',#462,.F.);
#464=ADVANCED_FACE('',(#463),#455,.T.);
#465=CARTESIAN_POINT('',(0.E0,0.E0,-3.94E1));
#466=DIRECTION('',(0.E0,0.E0,1.E0));
#467=DIRECTION('',(0.E0,1.E0,0.E0));
#468=AXIS2_PLACEMENT_3D('',#465,#466,#467);
#469=CONICAL_SURFACE('',#468,7.728161785944E1,2.E1);
#470=ORIENTED_EDGE('',*,*,#456,.F.);
#471=ORIENTED_EDGE('',*,*,#367,.T.);
#472=ORIENTED_EDGE('',*,*,#459,.T.);
#473=ORIENTED_EDGE('',*,*,#442,.F.);
#474=EDGE_LOOP('',(#470,#471,#472,#473));
#475=FACE_OUTER_BOUND('',#474,.F.);
#476=ADVANCED_FACE('',(#475),#469,.T.);
#477=CARTESIAN_POINT('',(0.E0,0.E0,3.94E1));
#478=DIRECTION('',(0.E0,0.E0,-1.E0));
#479=DIRECTION('',(0.E0,-1.E0,0.E0));
#480=AXIS2_PLACEMENT_3D('',#477,#478,#479);
#481=CONICAL_SURFACE('',#480,7.728161785944E1,2.E1);
#483=ORIENTED_EDGE('',*,*,#482,.F.);
#485=ORIENTED_EDGE('',*,*,#484,.T.);
#487=ORIENTED_EDGE('',*,*,#486,.T.);
#488=ORIENTED_EDGE('',*,*,#370,.F.);
#489=EDGE_LOOP('',(#483,#485,#487,#488));
#490=FACE_OUTER_BOUND('',#489,.F.);
#491=ADVANCED_FACE('',(#490),#481,.T.);
#492=CARTESIAN_POINT('',(0.E0,0.E0,3.94E1));
#493=DIRECTION('',(0.E0,0.E0,-1.E0));
#494=DIRECTION('',(0.E0,-1.E0,0.E0));
#495=AXIS2_PLACEMENT_3D('',#492,#493,#494);
#496=CONICAL_SURFACE('',#495,7.728161785944E1,2.E1);
#497=ORIENTED_EDGE('',*,*,#482,.T.);
#498=ORIENTED_EDGE('',*,*,#345,.T.);
#499=ORIENTED_EDGE('',*,*,#486,.F.);
#501=ORIENTED_EDGE('',*,*,#500,.F.);
#502=EDGE_LOOP('',(#497,#498,#499,#501));
#503=FACE_OUTER_BOUND('',#502,.F.);
#504=ADVANCED_FACE('',(#503),#496,.T.);
#505=CARTESIAN_POINT('',(0.E0,0.E0,4.E1));
#506=DIRECTION('',(0.E0,0.E0,-1.E0));
#507=DIRECTION('',(0.E0,-1.E0,0.E0));
#508=AXIS2_PLACEMENT_3D('',#505,#506,#507);
#509=PLANE('',#508);
#510=ORIENTED_EDGE('',*,*,#484,.F.);
#511=ORIENTED_EDGE('',*,*,#500,.T.);
#512=EDGE_LOOP('',(#510,#511));
#513=FACE_OUTER_BOUND('',#512,.F.);
#514=ORIENTED_EDGE('',*,*,#274,.F.);
#515=ORIENTED_EDGE('',*,*,#292,.T.);
#516=EDGE_LOOP('',(#514,#515));
#517=FACE_BOUND('',#516,.F.);
#518=ADVANCED_FACE('',(#513,#517),#509,.F.);
#519=CLOSED_SHELL('',(#282,#296,#317,#336,#357,#375,#390,#406,#421,#434,#450,
#464,#476,#491,#504,#518));
#520=MANIFOLD_SOLID_BREP('',#519);
#522=DIMENSIONAL_EXPONENTS(0.E0,0.E0,0.E0,0.E0,0.E0,0.E0,0.E0);
#524=PLANE_ANGLE_MEASURE_WITH_UNIT(PLANE_ANGLE_MEASURE(1.745329251994E-2),#523);
#525=(CONVERSION_BASED_UNIT('DEGREE',#524)NAMED_UNIT(*)PLANE_ANGLE_UNIT());
#527=UNCERTAINTY_MEASURE_WITH_UNIT(LENGTH_MEASURE(2.333359039820E-2),#521,
'closure',
'Maximum model space distance between geometric entities at asserted connectivities');
#528=(GEOMETRIC_REPRESENTATION_CONTEXT(3)GLOBAL_UNCERTAINTY_ASSIGNED_CONTEXT((
#527))GLOBAL_UNIT_ASSIGNED_CONTEXT((#521,#525,#526))REPRESENTATION_CONTEXT
('ID1','3'));
#530=APPLICATION_CONTEXT(
'CONFIGURATION CONTROLLED 3D DESIGNS OF MECHANICAL PARTS AND ASSEMBLIES');
#531=APPLICATION_PROTOCOL_DEFINITION('international standard',
'config_control_design',1994,#530);
#532=DESIGN_CONTEXT('',#530,'design');
#533=MECHANICAL_CONTEXT('',#530,'mechanical');
#534=PRODUCT('PG__A_2016_10_21','PG__A_2016_10_21','NOT SPECIFIED',(#533));
#535=PRODUCT_DEFINITION_FORMATION_WITH_SPECIFIED_SOURCE('1','LAST_VERSION',#534,
.MADE.);
#539=PRODUCT_CATEGORY('part','');
#540=PRODUCT_RELATED_PRODUCT_CATEGORY('detail','',(#534));
#541=PRODUCT_CATEGORY_RELATIONSHIP('','',#539,#540);
#542=SECURITY_CLASSIFICATION_LEVEL('unclassified');
#543=SECURITY_CLASSIFICATION('','',#542);
#544=CC_DESIGN_SECURITY_CLASSIFICATION(#543,(#535));
#545=APPROVAL_STATUS('approved');
#546=APPROVAL(#545,'');
#547=CC_DESIGN_APPROVAL(#546,(#543,#535,#536));
#548=CALENDAR_DATE(116,9,8);
#549=COORDINATED_UNIVERSAL_TIME_OFFSET(2,0,.AHEAD.);
#550=LOCAL_TIME(7,10,2.1E1,#549);
#551=DATE_AND_TIME(#548,#550);
#552=APPROVAL_DATE_TIME(#551,#546);
#553=DATE_TIME_ROLE('creation_date');
#554=CC_DESIGN_DATE_AND_TIME_ASSIGNMENT(#551,#553,(#536));
#555=DATE_TIME_ROLE('classification_date');
#556=CC_DESIGN_DATE_AND_TIME_ASSIGNMENT(#551,#555,(#543));
#557=PERSON('UNSPECIFIED','UNSPECIFIED',$,$,$,$);
#558=ORGANIZATION('UNSPECIFIED','UNSPECIFIED','UNSPECIFIED');
#559=PERSON_AND_ORGANIZATION(#557,#558);
#560=APPROVAL_ROLE('approver');
#561=APPROVAL_PERSON_ORGANIZATION(#559,#546,#560);
#562=PERSON_AND_ORGANIZATION_ROLE('creator');
#563=CC_DESIGN_PERSON_AND_ORGANIZATION_ASSIGNMENT(#559,#562,(#535,#536));
#564=PERSON_AND_ORGANIZATION_ROLE('design_supplier');
#565=CC_DESIGN_PERSON_AND_ORGANIZATION_ASSIGNMENT(#559,#564,(#535));
#566=PERSON_AND_ORGANIZATION_ROLE('classification_officer');
#567=CC_DESIGN_PERSON_AND_ORGANIZATION_ASSIGNMENT(#559,#566,(#543));
#568=PERSON_AND_ORGANIZATION_ROLE('design_owner');
#569=CC_DESIGN_PERSON_AND_ORGANIZATION_ASSIGNMENT(#559,#568,(#534));
#5=CIRCLE('',#4,7.5115E1);
#14=CIRCLE('',#13,7.5115E1);
#28=B_SPLINE_CURVE_WITH_KNOTS('',3,(#19,#20,#21,#22,#23,#24,#25,#26,#27),
.UNSPECIFIED.,.F.,.F.,(4,1,1,1,1,1,4),(0.E0,1.666666666667E-1,3.333333333333E-1,
5.E-1,6.666666666667E-1,8.333333333333E-1,1.E0),.UNSPECIFIED.);
#41=CIRCLE('',#40,7.5115E1);
#56=B_SPLINE_CURVE_WITH_KNOTS('',3,(#46,#47,#48,#49,#50,#51,#52,#53,#54,#55),
.UNSPECIFIED.,.F.,.F.,(4,1,1,1,1,1,1,4),(0.E0,1.428571428571E-1,
2.857142857143E-1,4.285714285714E-1,5.714285714286E-1,7.142857142857E-1,
8.571428571429E-1,1.E0),.UNSPECIFIED.);
#70=B_SPLINE_CURVE_WITH_KNOTS('',3,(#61,#62,#63,#64,#65,#66,#67,#68,#69),
.UNSPECIFIED.,.F.,.F.,(4,1,1,1,1,1,4),(0.E0,1.666666666667E-1,3.333333333333E-1,
5.E-1,6.666666666667E-1,8.333333333333E-1,1.E0),.UNSPECIFIED.);
#75=CIRCLE('',#74,7.75E1);
#85=B_SPLINE_CURVE_WITH_KNOTS('',3,(#76,#77,#78,#79,#80,#81,#82,#83,#84),
.UNSPECIFIED.,.F.,.F.,(4,1,1,1,1,1,4),(0.E0,1.666666666667E-1,3.333333333333E-1,
5.E-1,6.666666666667E-1,8.333333333333E-1,1.E0),.UNSPECIFIED.);
#95=B_SPLINE_CURVE_WITH_KNOTS('',3,(#86,#87,#88,#89,#90,#91,#92,#93,#94),
.UNSPECIFIED.,.F.,.F.,(4,1,1,1,1,1,4),(0.E0,1.666666666667E-1,3.333333333333E-1,
5.E-1,6.666666666667E-1,8.333333333333E-1,1.E0),.UNSPECIFIED.);
#106=B_SPLINE_CURVE_WITH_KNOTS('',3,(#96,#97,#98,#99,#100,#101,#102,#103,#104,
#105),.UNSPECIFIED.,.F.,.F.,(4,1,1,1,1,1,1,4),(0.E0,1.428571428571E-1,
2.857142857143E-1,4.285714285714E-1,5.714285714286E-1,7.142857142857E-1,
8.571428571429E-1,1.E0),.UNSPECIFIED.);
#119=CIRCLE('',#118,7.75E1);
#137=B_SPLINE_CURVE_WITH_KNOTS('',3,(#128,#129,#130,#131,#132,#133,#134,#135,
#136),.UNSPECIFIED.,.F.,.F.,(4,1,1,1,1,1,4),(0.E0,1.666666666667E-1,
3.333333333333E-1,5.E-1,6.666666666667E-1,8.333333333333E-1,1.E0),
.UNSPECIFIED.);
#147=B_SPLINE_CURVE_WITH_KNOTS('',3,(#138,#139,#140,#141,#142,#143,#144,#145,
#146),.UNSPECIFIED.,.F.,.F.,(4,1,1,1,1,1,4),(0.E0,1.666666666667E-1,
3.333333333333E-1,5.E-1,6.666666666667E-1,8.333333333333E-1,1.E0),
.UNSPECIFIED.);
#152=CIRCLE('',#151,7.5115E1);
#157=CIRCLE('',#156,7.5715E1);
#166=CIRCLE('',#165,7.5715E1);
#175=CIRCLE('',#174,7.706323571888E1);
#180=CIRCLE('',#179,7.706323571888E1);
#185=CIRCLE('',#184,7.75E1);
#194=CIRCLE('',#193,7.75E1);
#207=CIRCLE('',#206,7.706323571888E1);
#216=CIRCLE('',#215,7.706323571888E1);
#221=CIRCLE('',#220,7.5715E1);
#226=CIRCLE('',#225,7.5715E1);
#272=EDGE_CURVE('',#229,#230,#9,.T.);
#274=EDGE_CURVE('',#230,#246,#221,.T.);
#276=EDGE_CURVE('',#245,#246,#18,.T.);
#278=EDGE_CURVE('',#229,#245,#5,.T.);
#289=EDGE_CURVE('',#229,#245,#14,.T.);
#292=EDGE_CURVE('',#230,#246,#226,.T.);
#302=EDGE_CURVE('',#263,#266,#28,.T.);
#304=EDGE_CURVE('',#263,#245,#32,.T.);
#307=EDGE_CURVE('',#242,#229,#36,.T.);
#309=EDGE_CURVE('',#242,#258,#41,.T.);
#311=EDGE_CURVE('',#258,#264,#45,.T.);
#313=EDGE_CURVE('',#266,#264,#56,.T.);
#323=EDGE_CURVE('',#259,#260,#70,.T.);
#325=EDGE_CURVE('',#260,#262,#127,.T.);
#327=EDGE_CURVE('',#262,#263,#137,.T.);
#330=EDGE_CURVE('',#265,#266,#60,.T.);
#332=EDGE_CURVE('',#265,#259,#95,.T.);
#343=EDGE_CURVE('',#250,#259,#123,.T.);
#345=EDGE_CURVE('',#234,#250,#75,.T.);
#347=EDGE_CURVE('',#234,#236,#114,.T.);
#349=EDGE_CURVE('',#236,#253,#185,.T.);
#351=EDGE_CURVE('',#261,#253,#110,.T.);
#353=EDGE_CURVE('',#260,#261,#85,.T.);
#364=EDGE_CURVE('',#261,#265,#106,.T.);
#367=EDGE_CURVE('',#236,#253,#194,.T.);
#370=EDGE_CURVE('',#234,#250,#119,.T.);
#385=EDGE_CURVE('',#264,#262,#147,.T.);
#399=EDGE_CURVE('',#242,#258,#152,.T.);
#412=EDGE_CURVE('',#241,#242,#161,.T.);
#415=EDGE_CURVE('',#257,#258,#170,.T.);
#417=EDGE_CURVE('',#241,#257,#157,.T.);
#428=EDGE_CURVE('',#241,#257,#166,.T.);
#440=EDGE_CURVE('',#238,#254,#175,.T.);
#442=EDGE_CURVE('',#238,#254,#180,.T.);
#456=EDGE_CURVE('',#236,#238,#189,.T.);
#459=EDGE_CURVE('',#253,#254,#198,.T.);
#482=EDGE_CURVE('',#233,#234,#202,.T.);
#484=EDGE_CURVE('',#233,#249,#207,.T.);
#486=EDGE_CURVE('',#249,#250,#211,.T.);
#500=EDGE_CURVE('',#233,#249,#216,.T.);
#521=(LENGTH_UNIT()NAMED_UNIT(*)SI_UNIT(.MILLI.,.METRE.));
#523=(NAMED_UNIT(*)PLANE_ANGLE_UNIT()SI_UNIT($,.RADIAN.));
#526=(NAMED_UNIT(*)SI_UNIT($,.STERADIAN.)SOLID_ANGLE_UNIT());
#529=ADVANCED_BREP_SHAPE_REPRESENTATION('',(#520),#528);
#536=PRODUCT_DEFINITION('design','',#535,#532);
#537=PRODUCT_DEFINITION_SHAPE('','SHAPE FOR PG__A_2016_10_21.',#536);
#538=SHAPE_DEFINITION_REPRESENTATION(#537,#529);
ENDSEC;
END-ISO-10303-21;
