ISO-10303-21;
HEADER;
FILE_DESCRIPTION((''),'2;1');
FILE_NAME('PG__A_2016_10_21','2016-08-05T',('deusss58'),(''),
'PRO/ENGINEER BY PARAMETRIC TECHNOLOGY CORPORATION, 2014430',
'PRO/ENGINEER BY PARAMETRIC TECHNOLOGY CORPORATION, 2014430','');
FILE_SCHEMA(('CONFIG_CONTROL_DESIGN'));
ENDSEC;
DATA;
#1=CARTESIAN_POINT('',(0.E0,0.E0,7.15E0));
#2=DIRECTION('',(0.E0,0.E0,-1.E0));
#3=DIRECTION('',(0.E0,-1.E0,0.E0));
#4=AXIS2_PLACEMENT_3D('',#1,#2,#3);
#6=DIRECTION('',(0.E0,-7.071067811865E-1,7.071067811866E-1));
#7=VECTOR('',#6,4.949747468306E-1);
#8=CARTESIAN_POINT('',(0.E0,-9.045E0,7.15E0));
#9=LINE('',#8,#7);
#10=CARTESIAN_POINT('',(0.E0,0.E0,7.15E0));
#11=DIRECTION('',(0.E0,0.E0,1.E0));
#12=DIRECTION('',(0.E0,-1.E0,0.E0));
#13=AXIS2_PLACEMENT_3D('',#10,#11,#12);
#15=DIRECTION('',(0.E0,7.071067811865E-1,7.071067811866E-1));
#16=VECTOR('',#15,4.949747468306E-1);
#17=CARTESIAN_POINT('',(0.E0,9.045E0,7.15E0));
#18=LINE('',#17,#16);
#19=CARTESIAN_POINT('',(0.E0,9.045E0,1.5E0));
#20=CARTESIAN_POINT('',(9.537080533969E-2,9.045E0,1.5E0));
#21=CARTESIAN_POINT('',(2.847938661549E-1,9.042106630377E0,1.482759418912E0));
#22=CARTESIAN_POINT('',(5.798083970782E-1,9.027874949379E0,1.394527196154E0));
#23=CARTESIAN_POINT('',(8.401009154367E-1,9.006996225436E0,1.254056917698E0));
#24=CARTESIAN_POINT('',(1.067440712208E0,8.982610831577E0,1.067441020080E0));
#25=CARTESIAN_POINT('',(1.254530361981E0,8.958083336581E0,8.397069076115E-1));
#26=CARTESIAN_POINT('',(1.394650784568E0,8.937072661488E0,5.783706273754E-1));
#27=CARTESIAN_POINT('',(1.480822594947E0,8.923011936451E0,2.932774762569E-1));
#28=CARTESIAN_POINT('',(1.499999998941E0,8.919754761732E0,9.909676925568E-2));
#29=CARTESIAN_POINT('',(1.499999998941E0,8.919754761732E0,-2.311568540625E-9));
#31=DIRECTION('',(0.E0,0.E0,1.E0));
#32=VECTOR('',#31,5.65E0);
#33=CARTESIAN_POINT('',(0.E0,9.045E0,1.5E0));
#34=LINE('',#33,#32);
#35=DIRECTION('',(0.E0,0.E0,1.E0));
#36=VECTOR('',#35,1.43E1);
#37=CARTESIAN_POINT('',(0.E0,-9.045E0,-7.15E0));
#38=LINE('',#37,#36);
#39=CARTESIAN_POINT('',(0.E0,0.E0,-7.15E0));
#40=DIRECTION('',(0.E0,0.E0,1.E0));
#41=DIRECTION('',(0.E0,-1.E0,0.E0));
#42=AXIS2_PLACEMENT_3D('',#39,#40,#41);
#44=DIRECTION('',(0.E0,0.E0,1.E0));
#45=VECTOR('',#44,5.65E0);
#46=CARTESIAN_POINT('',(0.E0,9.045E0,-7.15E0));
#47=LINE('',#46,#45);
#48=CARTESIAN_POINT('',(1.499999998941E0,8.919754761732E0,-2.311568540625E-9));
#49=CARTESIAN_POINT('',(1.499999998941E0,8.919754761732E0,-9.909793454768E-2));
#50=CARTESIAN_POINT('',(1.480817170320E0,8.923012654038E0,-2.932816968179E-1));
#51=CARTESIAN_POINT('',(1.394676319792E0,8.937069070292E0,-5.783211375503E-1));
#52=CARTESIAN_POINT('',(1.254505713648E0,8.958085811313E0,-8.397267908086E-1));
#53=CARTESIAN_POINT('',(1.067537604706E0,8.982601207010E0,-1.067375352728E0));
#54=CARTESIAN_POINT('',(8.395269436786E-1,9.007057170954E0,-1.254510775739E0));
#55=CARTESIAN_POINT('',(5.787951589972E-1,9.027938367686E0,-1.394927451924E0));
#56=CARTESIAN_POINT('',(2.843553778601E-1,9.042113888575E0,-1.482800877051E0));
#57=CARTESIAN_POINT('',(9.520010139125E-2,9.045E0,-1.5E0));
#58=CARTESIAN_POINT('',(0.E0,9.045E0,-1.5E0));
#60=DIRECTION('',(-1.095512729181E-9,-1.E0,-2.390193274930E-9));
#61=VECTOR('',#60,9.671052049110E-1);
#62=CARTESIAN_POINT('',(1.5E0,9.886859966643E0,0.E0));
#63=LINE('',#62,#61);
#64=CARTESIAN_POINT('',(-1.510542439908E-14,1.E1,1.5E0));
#65=CARTESIAN_POINT('',(-9.509516025247E-2,1.E1,1.5E0));
#66=CARTESIAN_POINT('',(-2.840925366650E-1,9.997396707356E0,1.482849662553E0));
#67=CARTESIAN_POINT('',(-5.786741278697E-1,9.984577982038E0,1.394989498969E0));
#68=CARTESIAN_POINT('',(-8.394730749014E-1,9.965696636600E0,1.254544899521E0));
#69=CARTESIAN_POINT('',(-1.067469966775E0,9.943601509625E0,1.067447172013E0));
#70=CARTESIAN_POINT('',(-1.254526967168E0,9.921451381943E0,8.397085635818E-1));
#71=CARTESIAN_POINT('',(-1.394708727620E0,9.902477805385E0,5.782478156949E-1));
#72=CARTESIAN_POINT('',(-1.480833881102E0,9.889796497339E0,2.931888667306E-1));
#73=CARTESIAN_POINT('',(-1.5E0,9.886859966643E0,9.905830465133E-2));
#74=CARTESIAN_POINT('',(-1.5E0,9.886859966643E0,0.E0));
#76=CARTESIAN_POINT('',(0.E0,0.E0,6.9E0));
#77=DIRECTION('',(0.E0,0.E0,-1.E0));
#78=DIRECTION('',(0.E0,-1.E0,0.E0));
#79=AXIS2_PLACEMENT_3D('',#76,#77,#78);
#81=CARTESIAN_POINT('',(-1.5E0,9.886859966643E0,0.E0));
#82=CARTESIAN_POINT('',(-1.5E0,9.886859966643E0,-9.904856000668E-2));
#83=CARTESIAN_POINT('',(-1.480842625737E0,9.889795339745E0,-2.931602432459E-1));
#84=CARTESIAN_POINT('',(-1.394700060673E0,9.902478593585E0,-5.782521308393E-1));
#85=CARTESIAN_POINT('',(-1.254590683111E0,9.921444098767E0,-8.396287391183E-1));
#86=CARTESIAN_POINT('',(-1.067426378176E0,9.943604395700E0,-1.067459302268E0));
#87=CARTESIAN_POINT('',(-8.401145111701E-1,9.965635754827E0,-1.254045374408E0));
#88=CARTESIAN_POINT('',(-5.797607010416E-1,9.984516490933E0,-1.394560207904E0));
#89=CARTESIAN_POINT('',(-2.845770372006E-1,9.997389203972E0,-1.482802110354E0));
#90=CARTESIAN_POINT('',(-9.528356527695E-2,1.E1,-1.5E0));
#91=CARTESIAN_POINT('',(-1.178619770265E-14,1.E1,-1.5E0));
#93=CARTESIAN_POINT('',(1.5E0,9.886859966643E0,0.E0));
#94=CARTESIAN_POINT('',(1.5E0,9.886859966643E0,9.906009592797E-2));
#95=CARTESIAN_POINT('',(1.480835719316E0,9.889796341920E0,2.931897286419E-1));
#96=CARTESIAN_POINT('',(1.394699519428E0,9.902478762041E0,5.782560833932E-1));
#97=CARTESIAN_POINT('',(1.254565519200E0,9.921447212977E0,8.396660474278E-1));
#98=CARTESIAN_POINT('',(1.067413147140E0,9.943606148757E0,1.067477163031E0));
#99=CARTESIAN_POINT('',(8.399995038934E-1,9.965646226585E0,1.254129739810E0));
#100=CARTESIAN_POINT('',(5.796549108844E-1,9.984521345196E0,1.394592603862E0));
#101=CARTESIAN_POINT('',(2.846457803882E-1,9.997386300703E0,1.482782560132E0));
#102=CARTESIAN_POINT('',(9.531714963455E-2,1.E1,1.5E0));
#103=CARTESIAN_POINT('',(-1.510542439908E-14,1.E1,1.5E0));
#105=CARTESIAN_POINT('',(-1.178619770265E-14,1.E1,-1.5E0));
#106=CARTESIAN_POINT('',(9.514116152267E-2,1.E1,-1.5E0));
#107=CARTESIAN_POINT('',(2.841918099475E-1,9.997393111837E0,-1.482825584433E0));
#108=CARTESIAN_POINT('',(5.786057681704E-1,9.984580607734E0,-1.395006168805E0));
#109=CARTESIAN_POINT('',(8.393820843265E-1,9.965704948357E0,-1.254611904687E0));
#110=CARTESIAN_POINT('',(1.067469666671E0,9.943601842414E0,-1.067451858913E0));
#111=CARTESIAN_POINT('',(1.254513099567E0,9.921453051820E0,-8.397288649344E-1));
#112=CARTESIAN_POINT('',(1.394713599394E0,9.902477188582E0,-5.782380010540E-1));
#113=CARTESIAN_POINT('',(1.480829137129E0,9.889797172170E0,-2.932057114931E-1));
#114=CARTESIAN_POINT('',(1.5E0,9.886859966643E0,-9.906492922486E-2));
#115=CARTESIAN_POINT('',(1.5E0,9.886859966643E0,0.E0));
#117=DIRECTION('',(0.E0,0.E0,-1.E0));
#118=VECTOR('',#117,5.4E0);
#119=CARTESIAN_POINT('',(-1.178619770265E-14,1.E1,-1.5E0));
#120=LINE('',#119,#118);
#121=DIRECTION('',(0.E0,0.E0,-1.E0));
#122=VECTOR('',#121,1.38E1);
#123=CARTESIAN_POINT('',(0.E0,-1.E1,6.9E0));
#124=LINE('',#123,#122);
#125=CARTESIAN_POINT('',(0.E0,0.E0,6.9E0));
#126=DIRECTION('',(0.E0,0.E0,1.E0));
#127=DIRECTION('',(0.E0,-1.E0,0.E0));
#128=AXIS2_PLACEMENT_3D('',#125,#126,#127);
#130=DIRECTION('',(0.E0,0.E0,-1.E0));
#131=VECTOR('',#130,5.4E0);
#132=CARTESIAN_POINT('',(0.E0,1.E1,6.9E0));
#133=LINE('',#132,#131);
#134=DIRECTION('',(1.031833498644E-9,-1.E0,2.300460034626E-9));
#135=VECTOR('',#134,9.671052049417E-1);
#136=CARTESIAN_POINT('',(-1.5E0,9.886859966643E0,0.E0));
#137=LINE('',#136,#135);
#138=CARTESIAN_POINT('',(-1.499999999002E0,8.919754761701E0,2.224786995712E-9));
#139=CARTESIAN_POINT('',(-1.499999999002E0,8.919754761701E0,9.909132483737E-2));
#140=CARTESIAN_POINT('',(-1.480821906230E0,8.923011907571E0,2.932648917960E-1));
#141=CARTESIAN_POINT('',(-1.394671445312E0,8.937069753954E0,5.783309600132E-1));
#142=CARTESIAN_POINT('',(-1.254519542085E0,8.958083967864E0,8.397065581831E-1));
#143=CARTESIAN_POINT('',(-1.067537808923E0,8.982600849472E0,1.067370764583E0));
#144=CARTESIAN_POINT('',(-8.396177711461E-1,9.007047989841E0,1.254443879066E0));
#145=CARTESIAN_POINT('',(-5.788632306624E-1,9.027935479501E0,1.394910872727E0));
#146=CARTESIAN_POINT('',(-2.842562835429E-1,9.042117857286E0,1.482824914217E0));
#147=CARTESIAN_POINT('',(-9.515417468327E-2,9.045E0,1.5E0));
#148=CARTESIAN_POINT('',(0.E0,9.045E0,1.5E0));
#150=CARTESIAN_POINT('',(0.E0,9.045E0,-1.5E0));
#151=CARTESIAN_POINT('',(-9.533727875063E-2,9.045E0,-1.5E0));
#152=CARTESIAN_POINT('',(-2.847252578892E-1,9.042109833566E0,
-1.482778926246E0));
#153=CARTESIAN_POINT('',(-5.799137643096E-1,9.027869604542E0,
-1.394494940211E0));
#154=CARTESIAN_POINT('',(-8.402156772507E-1,9.006984662972E0,
-1.253972724645E0));
#155=CARTESIAN_POINT('',(-1.067453819635E0,8.982608905187E0,-1.067423287737E0));
#156=CARTESIAN_POINT('',(-1.254555461373E0,8.958079897081E0,
-8.396697071375E-1));
#157=CARTESIAN_POINT('',(-1.394651309937E0,8.937072477116E0,
-5.783667212747E-1));
#158=CARTESIAN_POINT('',(-1.480829493803E0,8.923010827079E0,
-2.932480407841E-1));
#159=CARTESIAN_POINT('',(-1.499999999002E0,8.919754761701E0,
-9.908525116588E-2));
#160=CARTESIAN_POINT('',(-1.499999999002E0,8.919754761701E0,2.224786995712E-9));
#162=CARTESIAN_POINT('',(0.E0,0.E0,-7.15E0));
#163=DIRECTION('',(0.E0,0.E0,-1.E0));
#164=DIRECTION('',(0.E0,-1.E0,0.E0));
#165=AXIS2_PLACEMENT_3D('',#162,#163,#164);
#167=CARTESIAN_POINT('',(0.E0,0.E0,-7.5E0));
#168=DIRECTION('',(0.E0,0.E0,-1.E0));
#169=DIRECTION('',(0.E0,-1.E0,0.E0));
#170=AXIS2_PLACEMENT_3D('',#167,#168,#169);
#172=DIRECTION('',(0.E0,7.071067811865E-1,7.071067811866E-1));
#173=VECTOR('',#172,4.949747468306E-1);
#174=CARTESIAN_POINT('',(0.E0,-9.395E0,-7.5E0));
#175=LINE('',#174,#173);
#176=CARTESIAN_POINT('',(0.E0,0.E0,-7.5E0));
#177=DIRECTION('',(0.E0,0.E0,1.E0));
#178=DIRECTION('',(0.E0,-1.E0,0.E0));
#179=AXIS2_PLACEMENT_3D('',#176,#177,#178);
#181=DIRECTION('',(0.E0,-7.071067811865E-1,7.071067811866E-1));
#182=VECTOR('',#181,4.949747468306E-1);
#183=CARTESIAN_POINT('',(0.E0,9.395E0,-7.5E0));
#184=LINE('',#183,#182);
#185=CARTESIAN_POINT('',(0.E0,0.E0,-7.5E0));
#186=DIRECTION('',(0.E0,0.E0,-1.E0));
#187=DIRECTION('',(0.E0,-1.E0,0.E0));
#188=AXIS2_PLACEMENT_3D('',#185,#186,#187);
#190=CARTESIAN_POINT('',(0.E0,0.E0,-7.5E0));
#191=DIRECTION('',(0.E0,0.E0,1.E0));
#192=DIRECTION('',(0.E0,-1.E0,0.E0));
#193=AXIS2_PLACEMENT_3D('',#190,#191,#192);
#195=CARTESIAN_POINT('',(0.E0,0.E0,-6.9E0));
#196=DIRECTION('',(0.E0,0.E0,-1.E0));
#197=DIRECTION('',(0.E0,-1.E0,0.E0));
#198=AXIS2_PLACEMENT_3D('',#195,#196,#197);
#200=DIRECTION('',(0.E0,3.420201433257E-1,-9.396926207859E-1));
#201=VECTOR('',#200,6.385066634856E-1);
#202=CARTESIAN_POINT('',(0.E0,-1.E1,-6.9E0));
#203=LINE('',#202,#201);
#204=CARTESIAN_POINT('',(0.E0,0.E0,-6.9E0));
#205=DIRECTION('',(0.E0,0.E0,1.E0));
#206=DIRECTION('',(0.E0,-1.E0,0.E0));
#207=AXIS2_PLACEMENT_3D('',#204,#205,#206);
#209=DIRECTION('',(0.E0,-3.420201433257E-1,-9.396926207859E-1));
#210=VECTOR('',#209,6.385066634856E-1);
#211=CARTESIAN_POINT('',(0.E0,1.E1,-6.9E0));
#212=LINE('',#211,#210);
#213=DIRECTION('',(0.E0,-3.420201433257E-1,-9.396926207859E-1));
#214=VECTOR('',#213,6.385066634856E-1);
#215=CARTESIAN_POINT('',(0.E0,-9.781617859440E0,7.5E0));
#216=LINE('',#215,#214);
#217=CARTESIAN_POINT('',(0.E0,0.E0,7.5E0));
#218=DIRECTION('',(0.E0,0.E0,1.E0));
#219=DIRECTION('',(0.E0,-1.E0,0.E0));
#220=AXIS2_PLACEMENT_3D('',#217,#218,#219);
#222=DIRECTION('',(0.E0,3.420201433257E-1,-9.396926207859E-1));
#223=VECTOR('',#222,6.385066634856E-1);
#224=CARTESIAN_POINT('',(0.E0,9.781617859440E0,7.5E0));
#225=LINE('',#224,#223);
#226=CARTESIAN_POINT('',(0.E0,0.E0,7.5E0));
#227=DIRECTION('',(0.E0,0.E0,-1.E0));
#228=DIRECTION('',(0.E0,-1.E0,0.E0));
#229=AXIS2_PLACEMENT_3D('',#226,#227,#228);
#231=CARTESIAN_POINT('',(0.E0,0.E0,7.5E0));
#232=DIRECTION('',(0.E0,0.E0,-1.E0));
#233=DIRECTION('',(0.E0,-1.E0,0.E0));
#234=AXIS2_PLACEMENT_3D('',#231,#232,#233);
#236=CARTESIAN_POINT('',(0.E0,0.E0,7.5E0));
#237=DIRECTION('',(0.E0,0.E0,1.E0));
#238=DIRECTION('',(0.E0,-1.E0,0.E0));
#239=AXIS2_PLACEMENT_3D('',#236,#237,#238);
#241=CARTESIAN_POINT('',(0.E0,-9.045E0,7.15E0));
#242=CARTESIAN_POINT('',(0.E0,-9.395E0,7.5E0));
#243=VERTEX_POINT('',#241);
#244=VERTEX_POINT('',#242);
#245=CARTESIAN_POINT('',(0.E0,-9.781617859440E0,7.5E0));
#246=CARTESIAN_POINT('',(0.E0,-1.E1,6.9E0));
#247=VERTEX_POINT('',#245);
#248=VERTEX_POINT('',#246);
#249=CARTESIAN_POINT('',(0.E0,-1.E1,-6.9E0));
#250=VERTEX_POINT('',#249);
#251=CARTESIAN_POINT('',(0.E0,-9.781617859440E0,-7.5E0));
#252=VERTEX_POINT('',#251);
#253=CARTESIAN_POINT('',(0.E0,-9.395E0,-7.5E0));
#254=CARTESIAN_POINT('',(0.E0,-9.045E0,-7.15E0));
#255=VERTEX_POINT('',#253);
#256=VERTEX_POINT('',#254);
#257=CARTESIAN_POINT('',(0.E0,9.045E0,7.15E0));
#258=CARTESIAN_POINT('',(0.E0,9.395E0,7.5E0));
#259=VERTEX_POINT('',#257);
#260=VERTEX_POINT('',#258);
#261=CARTESIAN_POINT('',(0.E0,9.781617859440E0,7.5E0));
#262=CARTESIAN_POINT('',(0.E0,1.E1,6.9E0));
#263=VERTEX_POINT('',#261);
#264=VERTEX_POINT('',#262);
#265=CARTESIAN_POINT('',(0.E0,1.E1,-6.9E0));
#266=CARTESIAN_POINT('',(0.E0,9.781617859440E0,-7.5E0));
#267=VERTEX_POINT('',#265);
#268=VERTEX_POINT('',#266);
#269=CARTESIAN_POINT('',(0.E0,9.395E0,-7.5E0));
#270=CARTESIAN_POINT('',(0.E0,9.045E0,-7.15E0));
#271=VERTEX_POINT('',#269);
#272=VERTEX_POINT('',#270);
#273=VERTEX_POINT('',#64);
#274=VERTEX_POINT('',#74);
#275=VERTEX_POINT('',#91);
#276=VERTEX_POINT('',#138);
#277=VERTEX_POINT('',#148);
#278=VERTEX_POINT('',#150);
#279=VERTEX_POINT('',#93);
#280=VERTEX_POINT('',#29);
#281=CARTESIAN_POINT('',(0.E0,0.E0,7.325E0));
#282=DIRECTION('',(0.E0,0.E0,1.E0));
#283=DIRECTION('',(0.E0,1.E0,0.E0));
#284=AXIS2_PLACEMENT_3D('',#281,#282,#283);
#285=CONICAL_SURFACE('',#284,9.22E0,4.5E1);
#287=ORIENTED_EDGE('',*,*,#286,.T.);
#289=ORIENTED_EDGE('',*,*,#288,.T.);
#291=ORIENTED_EDGE('',*,*,#290,.F.);
#293=ORIENTED_EDGE('',*,*,#292,.F.);
#294=EDGE_LOOP('',(#287,#289,#291,#293));
#295=FACE_OUTER_BOUND('',#294,.F.);
#296=ADVANCED_FACE('',(#295),#285,.F.);
#297=CARTESIAN_POINT('',(0.E0,0.E0,7.325E0));
#298=DIRECTION('',(0.E0,0.E0,1.E0));
#299=DIRECTION('',(0.E0,1.E0,0.E0));
#300=AXIS2_PLACEMENT_3D('',#297,#298,#299);
#301=CONICAL_SURFACE('',#300,9.22E0,4.5E1);
#302=ORIENTED_EDGE('',*,*,#286,.F.);
#304=ORIENTED_EDGE('',*,*,#303,.T.);
#305=ORIENTED_EDGE('',*,*,#290,.T.);
#307=ORIENTED_EDGE('',*,*,#306,.F.);
#308=EDGE_LOOP('',(#302,#304,#305,#307));
#309=FACE_OUTER_BOUND('',#308,.F.);
#310=ADVANCED_FACE('',(#309),#301,.F.);
#311=CARTESIAN_POINT('',(0.E0,0.E0,8.25E0));
#312=DIRECTION('',(0.E0,0.E0,-1.E0));
#313=DIRECTION('',(0.E0,-1.E0,0.E0));
#314=AXIS2_PLACEMENT_3D('',#311,#312,#313);
#315=CYLINDRICAL_SURFACE('',#314,9.045E0);
#317=ORIENTED_EDGE('',*,*,#316,.F.);
#319=ORIENTED_EDGE('',*,*,#318,.T.);
#320=ORIENTED_EDGE('',*,*,#303,.F.);
#322=ORIENTED_EDGE('',*,*,#321,.F.);
#324=ORIENTED_EDGE('',*,*,#323,.T.);
#326=ORIENTED_EDGE('',*,*,#325,.T.);
#328=ORIENTED_EDGE('',*,*,#327,.F.);
#329=EDGE_LOOP('',(#317,#319,#320,#322,#324,#326,#328));
#330=FACE_OUTER_BOUND('',#329,.F.);
#331=ADVANCED_FACE('',(#330),#315,.F.);
#332=CARTESIAN_POINT('',(0.E0,1.E1,0.E0));
#333=DIRECTION('',(0.E0,-1.E0,0.E0));
#334=DIRECTION('',(1.E0,0.E0,0.E0));
#335=AXIS2_PLACEMENT_3D('',#332,#333,#334);
#336=CYLINDRICAL_SURFACE('',#335,1.5E0);
#338=ORIENTED_EDGE('',*,*,#337,.T.);
#340=ORIENTED_EDGE('',*,*,#339,.T.);
#342=ORIENTED_EDGE('',*,*,#341,.T.);
#343=ORIENTED_EDGE('',*,*,#316,.T.);
#345=ORIENTED_EDGE('',*,*,#344,.F.);
#347=ORIENTED_EDGE('',*,*,#346,.T.);
#348=EDGE_LOOP('',(#338,#340,#342,#343,#345,#347));
#349=FACE_OUTER_BOUND('',#348,.F.);
#350=ADVANCED_FACE('',(#349),#336,.F.);
#351=CARTESIAN_POINT('',(0.E0,0.E0,8.25E0));
#352=DIRECTION('',(0.E0,0.E0,-1.E0));
#353=DIRECTION('',(0.E0,-1.E0,0.E0));
#354=AXIS2_PLACEMENT_3D('',#351,#352,#353);
#355=CYLINDRICAL_SURFACE('',#354,1.E1);
#356=ORIENTED_EDGE('',*,*,#337,.F.);
#358=ORIENTED_EDGE('',*,*,#357,.F.);
#360=ORIENTED_EDGE('',*,*,#359,.F.);
#362=ORIENTED_EDGE('',*,*,#361,.T.);
#364=ORIENTED_EDGE('',*,*,#363,.T.);
#366=ORIENTED_EDGE('',*,*,#365,.F.);
#368=ORIENTED_EDGE('',*,*,#367,.F.);
#369=EDGE_LOOP('',(#356,#358,#360,#362,#364,#366,#368));
#370=FACE_OUTER_BOUND('',#369,.F.);
#371=ADVANCED_FACE('',(#370),#355,.T.);
#372=CARTESIAN_POINT('',(0.E0,0.E0,8.25E0));
#373=DIRECTION('',(0.E0,0.E0,-1.E0));
#374=DIRECTION('',(0.E0,-1.E0,0.E0));
#375=AXIS2_PLACEMENT_3D('',#372,#373,#374);
#376=CYLINDRICAL_SURFACE('',#375,1.E1);
#377=ORIENTED_EDGE('',*,*,#346,.F.);
#379=ORIENTED_EDGE('',*,*,#378,.F.);
#380=ORIENTED_EDGE('',*,*,#365,.T.);
#382=ORIENTED_EDGE('',*,*,#381,.F.);
#383=ORIENTED_EDGE('',*,*,#361,.F.);
#385=ORIENTED_EDGE('',*,*,#384,.T.);
#386=ORIENTED_EDGE('',*,*,#357,.T.);
#387=EDGE_LOOP('',(#377,#379,#380,#382,#383,#385,#386));
#388=FACE_OUTER_BOUND('',#387,.F.);
#389=ADVANCED_FACE('',(#388),#376,.T.);
#390=CARTESIAN_POINT('',(0.E0,1.E1,0.E0));
#391=DIRECTION('',(0.E0,-1.E0,0.E0));
#392=DIRECTION('',(1.E0,0.E0,0.E0));
#393=AXIS2_PLACEMENT_3D('',#390,#391,#392);
#394=CYLINDRICAL_SURFACE('',#393,1.5E0);
#395=ORIENTED_EDGE('',*,*,#367,.T.);
#396=ORIENTED_EDGE('',*,*,#378,.T.);
#397=ORIENTED_EDGE('',*,*,#344,.T.);
#398=ORIENTED_EDGE('',*,*,#327,.T.);
#400=ORIENTED_EDGE('',*,*,#399,.T.);
#401=ORIENTED_EDGE('',*,*,#339,.F.);
#402=EDGE_LOOP('',(#395,#396,#397,#398,#400,#401));
#403=FACE_OUTER_BOUND('',#402,.F.);
#404=ADVANCED_FACE('',(#403),#394,.F.);
#405=CARTESIAN_POINT('',(0.E0,0.E0,8.25E0));
#406=DIRECTION('',(0.E0,0.E0,-1.E0));
#407=DIRECTION('',(0.E0,-1.E0,0.E0));
#408=AXIS2_PLACEMENT_3D('',#405,#406,#407);
#409=CYLINDRICAL_SURFACE('',#408,9.045E0);
#410=ORIENTED_EDGE('',*,*,#341,.F.);
#411=ORIENTED_EDGE('',*,*,#399,.F.);
#412=ORIENTED_EDGE('',*,*,#325,.F.);
#414=ORIENTED_EDGE('',*,*,#413,.F.);
#415=ORIENTED_EDGE('',*,*,#321,.T.);
#416=ORIENTED_EDGE('',*,*,#292,.T.);
#417=ORIENTED_EDGE('',*,*,#318,.F.);
#418=EDGE_LOOP('',(#410,#411,#412,#414,#415,#416,#417));
#419=FACE_OUTER_BOUND('',#418,.F.);
#420=ADVANCED_FACE('',(#419),#409,.F.);
#421=CARTESIAN_POINT('',(0.E0,0.E0,-7.325E0));
#422=DIRECTION('',(0.E0,0.E0,-1.E0));
#423=DIRECTION('',(0.E0,-1.E0,0.E0));
#424=AXIS2_PLACEMENT_3D('',#421,#422,#423);
#425=CONICAL_SURFACE('',#424,9.22E0,4.5E1);
#427=ORIENTED_EDGE('',*,*,#426,.T.);
#428=ORIENTED_EDGE('',*,*,#413,.T.);
#430=ORIENTED_EDGE('',*,*,#429,.F.);
#432=ORIENTED_EDGE('',*,*,#431,.F.);
#433=EDGE_LOOP('',(#427,#428,#430,#432));
#434=FACE_OUTER_BOUND('',#433,.F.);
#435=ADVANCED_FACE('',(#434),#425,.F.);
#436=CARTESIAN_POINT('',(0.E0,0.E0,-7.325E0));
#437=DIRECTION('',(0.E0,0.E0,-1.E0));
#438=DIRECTION('',(0.E0,-1.E0,0.E0));
#439=AXIS2_PLACEMENT_3D('',#436,#437,#438);
#440=CONICAL_SURFACE('',#439,9.22E0,4.5E1);
#441=ORIENTED_EDGE('',*,*,#426,.F.);
#443=ORIENTED_EDGE('',*,*,#442,.T.);
#444=ORIENTED_EDGE('',*,*,#429,.T.);
#445=ORIENTED_EDGE('',*,*,#323,.F.);
#446=EDGE_LOOP('',(#441,#443,#444,#445));
#447=FACE_OUTER_BOUND('',#446,.F.);
#448=ADVANCED_FACE('',(#447),#440,.F.);
#449=CARTESIAN_POINT('',(0.E0,0.E0,-7.5E0));
#450=DIRECTION('',(0.E0,0.E0,-1.E0));
#451=DIRECTION('',(0.E0,-1.E0,0.E0));
#452=AXIS2_PLACEMENT_3D('',#449,#450,#451);
#453=PLANE('',#452);
#455=ORIENTED_EDGE('',*,*,#454,.F.);
#457=ORIENTED_EDGE('',*,*,#456,.T.);
#458=EDGE_LOOP('',(#455,#457));
#459=FACE_OUTER_BOUND('',#458,.F.);
#460=ORIENTED_EDGE('',*,*,#442,.F.);
#461=ORIENTED_EDGE('',*,*,#431,.T.);
#462=EDGE_LOOP('',(#460,#461));
#463=FACE_BOUND('',#462,.F.);
#464=ADVANCED_FACE('',(#459,#463),#453,.T.);
#465=CARTESIAN_POINT('',(0.E0,0.E0,-7.2E0));
#466=DIRECTION('',(0.E0,0.E0,1.E0));
#467=DIRECTION('',(0.E0,1.E0,0.E0));
#468=AXIS2_PLACEMENT_3D('',#465,#466,#467);
#469=CONICAL_SURFACE('',#468,9.890808929720E0,2.E1);
#471=ORIENTED_EDGE('',*,*,#470,.T.);
#472=ORIENTED_EDGE('',*,*,#454,.T.);
#474=ORIENTED_EDGE('',*,*,#473,.F.);
#475=ORIENTED_EDGE('',*,*,#363,.F.);
#476=EDGE_LOOP('',(#471,#472,#474,#475));
#477=FACE_OUTER_BOUND('',#476,.F.);
#478=ADVANCED_FACE('',(#477),#469,.T.);
#479=CARTESIAN_POINT('',(0.E0,0.E0,-7.2E0));
#480=DIRECTION('',(0.E0,0.E0,1.E0));
#481=DIRECTION('',(0.E0,1.E0,0.E0));
#482=AXIS2_PLACEMENT_3D('',#479,#480,#481);
#483=CONICAL_SURFACE('',#482,9.890808929720E0,2.E1);
#484=ORIENTED_EDGE('',*,*,#470,.F.);
#485=ORIENTED_EDGE('',*,*,#381,.T.);
#486=ORIENTED_EDGE('',*,*,#473,.T.);
#487=ORIENTED_EDGE('',*,*,#456,.F.);
#488=EDGE_LOOP('',(#484,#485,#486,#487));
#489=FACE_OUTER_BOUND('',#488,.F.);
#490=ADVANCED_FACE('',(#489),#483,.T.);
#491=CARTESIAN_POINT('',(0.E0,0.E0,7.2E0));
#492=DIRECTION('',(0.E0,0.E0,-1.E0));
#493=DIRECTION('',(0.E0,-1.E0,0.E0));
#494=AXIS2_PLACEMENT_3D('',#491,#492,#493);
#495=CONICAL_SURFACE('',#494,9.890808929720E0,2.E1);
#497=ORIENTED_EDGE('',*,*,#496,.F.);
#499=ORIENTED_EDGE('',*,*,#498,.T.);
#501=ORIENTED_EDGE('',*,*,#500,.T.);
#502=ORIENTED_EDGE('',*,*,#384,.F.);
#503=EDGE_LOOP('',(#497,#499,#501,#502));
#504=FACE_OUTER_BOUND('',#503,.F.);
#505=ADVANCED_FACE('',(#504),#495,.T.);
#506=CARTESIAN_POINT('',(0.E0,0.E0,7.2E0));
#507=DIRECTION('',(0.E0,0.E0,-1.E0));
#508=DIRECTION('',(0.E0,-1.E0,0.E0));
#509=AXIS2_PLACEMENT_3D('',#506,#507,#508);
#510=CONICAL_SURFACE('',#509,9.890808929720E0,2.E1);
#511=ORIENTED_EDGE('',*,*,#496,.T.);
#512=ORIENTED_EDGE('',*,*,#359,.T.);
#513=ORIENTED_EDGE('',*,*,#500,.F.);
#515=ORIENTED_EDGE('',*,*,#514,.F.);
#516=EDGE_LOOP('',(#511,#512,#513,#515));
#517=FACE_OUTER_BOUND('',#516,.F.);
#518=ADVANCED_FACE('',(#517),#510,.T.);
#519=CARTESIAN_POINT('',(0.E0,0.E0,7.5E0));
#520=DIRECTION('',(0.E0,0.E0,-1.E0));
#521=DIRECTION('',(0.E0,-1.E0,0.E0));
#522=AXIS2_PLACEMENT_3D('',#519,#520,#521);
#523=PLANE('',#522);
#524=ORIENTED_EDGE('',*,*,#498,.F.);
#525=ORIENTED_EDGE('',*,*,#514,.T.);
#526=EDGE_LOOP('',(#524,#525));
#527=FACE_OUTER_BOUND('',#526,.F.);
#528=ORIENTED_EDGE('',*,*,#288,.F.);
#529=ORIENTED_EDGE('',*,*,#306,.T.);
#530=EDGE_LOOP('',(#528,#529));
#531=FACE_BOUND('',#530,.F.);
#532=ADVANCED_FACE('',(#527,#531),#523,.F.);
#533=CLOSED_SHELL('',(#296,#310,#331,#350,#371,#389,#404,#420,#435,#448,#464,
#478,#490,#505,#518,#532));
#534=MANIFOLD_SOLID_BREP('',#533);
#536=DIMENSIONAL_EXPONENTS(0.E0,0.E0,0.E0,0.E0,0.E0,0.E0,0.E0);
#538=PLANE_ANGLE_MEASURE_WITH_UNIT(PLANE_ANGLE_MEASURE(1.745329251994E-2),#537);
#539=(CONVERSION_BASED_UNIT('DEGREE',#538)NAMED_UNIT(*)PLANE_ANGLE_UNIT());
#541=UNCERTAINTY_MEASURE_WITH_UNIT(LENGTH_MEASURE(3.201434056232E-3),#535,
'closure',
'Maximum model space distance between geometric entities at asserted connectivities');
#542=(GEOMETRIC_REPRESENTATION_CONTEXT(3)GLOBAL_UNCERTAINTY_ASSIGNED_CONTEXT((
#541))GLOBAL_UNIT_ASSIGNED_CONTEXT((#535,#539,#540))REPRESENTATION_CONTEXT
('ID1','3'));
#544=APPLICATION_CONTEXT(
'CONFIGURATION CONTROLLED 3D DESIGNS OF MECHANICAL PARTS AND ASSEMBLIES');
#545=APPLICATION_PROTOCOL_DEFINITION('international standard',
'config_control_design',1994,#544);
#546=DESIGN_CONTEXT('',#544,'design');
#547=MECHANICAL_CONTEXT('',#544,'mechanical');
#548=PRODUCT('PG__A_2016_10_21','PG__A_2016_10_21','NOT SPECIFIED',(#547));
#549=PRODUCT_DEFINITION_FORMATION_WITH_SPECIFIED_SOURCE('1','LAST_VERSION',#548,
.MADE.);
#553=PRODUCT_CATEGORY('part','');
#554=PRODUCT_RELATED_PRODUCT_CATEGORY('detail','',(#548));
#555=PRODUCT_CATEGORY_RELATIONSHIP('','',#553,#554);
#556=SECURITY_CLASSIFICATION_LEVEL('unclassified');
#557=SECURITY_CLASSIFICATION('','',#556);
#558=CC_DESIGN_SECURITY_CLASSIFICATION(#557,(#549));
#559=APPROVAL_STATUS('approved');
#560=APPROVAL(#559,'');
#561=CC_DESIGN_APPROVAL(#560,(#557,#549,#550));
#562=CALENDAR_DATE(116,5,8);
#563=COORDINATED_UNIVERSAL_TIME_OFFSET(2,0,.AHEAD.);
#564=LOCAL_TIME(13,16,2.8E1,#563);
#565=DATE_AND_TIME(#562,#564);
#566=APPROVAL_DATE_TIME(#565,#560);
#567=DATE_TIME_ROLE('creation_date');
#568=CC_DESIGN_DATE_AND_TIME_ASSIGNMENT(#565,#567,(#550));
#569=DATE_TIME_ROLE('classification_date');
#570=CC_DESIGN_DATE_AND_TIME_ASSIGNMENT(#565,#569,(#557));
#571=PERSON('UNSPECIFIED','UNSPECIFIED',$,$,$,$);
#572=ORGANIZATION('UNSPECIFIED','UNSPECIFIED','UNSPECIFIED');
#573=PERSON_AND_ORGANIZATION(#571,#572);
#574=APPROVAL_ROLE('approver');
#575=APPROVAL_PERSON_ORGANIZATION(#573,#560,#574);
#576=PERSON_AND_ORGANIZATION_ROLE('creator');
#577=CC_DESIGN_PERSON_AND_ORGANIZATION_ASSIGNMENT(#573,#576,(#549,#550));
#578=PERSON_AND_ORGANIZATION_ROLE('design_supplier');
#579=CC_DESIGN_PERSON_AND_ORGANIZATION_ASSIGNMENT(#573,#578,(#549));
#580=PERSON_AND_ORGANIZATION_ROLE('classification_officer');
#581=CC_DESIGN_PERSON_AND_ORGANIZATION_ASSIGNMENT(#573,#580,(#557));
#582=PERSON_AND_ORGANIZATION_ROLE('design_owner');
#583=CC_DESIGN_PERSON_AND_ORGANIZATION_ASSIGNMENT(#573,#582,(#548));
#5=CIRCLE('',#4,9.045E0);
#14=CIRCLE('',#13,9.045E0);
#30=B_SPLINE_CURVE_WITH_KNOTS('',3,(#19,#20,#21,#22,#23,#24,#25,#26,#27,#28,
#29),.UNSPECIFIED.,.F.,.F.,(4,1,1,1,1,1,1,1,4),(0.E0,1.25E-1,2.5E-1,3.75E-1,
5.E-1,6.25E-1,7.5E-1,8.75E-1,1.E0),.UNSPECIFIED.);
#43=CIRCLE('',#42,9.045E0);
#59=B_SPLINE_CURVE_WITH_KNOTS('',3,(#48,#49,#50,#51,#52,#53,#54,#55,#56,#57,
#58),.UNSPECIFIED.,.F.,.F.,(4,1,1,1,1,1,1,1,4),(0.E0,1.25E-1,2.5E-1,3.75E-1,
5.E-1,6.25E-1,7.5E-1,8.75E-1,1.E0),.UNSPECIFIED.);
#75=B_SPLINE_CURVE_WITH_KNOTS('',3,(#64,#65,#66,#67,#68,#69,#70,#71,#72,#73,
#74),.UNSPECIFIED.,.F.,.F.,(4,1,1,1,1,1,1,1,4),(0.E0,1.25E-1,2.5E-1,3.75E-1,
5.E-1,6.25E-1,7.5E-1,8.75E-1,1.E0),.UNSPECIFIED.);
#80=CIRCLE('',#79,1.E1);
#92=B_SPLINE_CURVE_WITH_KNOTS('',3,(#81,#82,#83,#84,#85,#86,#87,#88,#89,#90,
#91),.UNSPECIFIED.,.F.,.F.,(4,1,1,1,1,1,1,1,4),(0.E0,1.25E-1,2.5E-1,3.75E-1,
5.E-1,6.25E-1,7.5E-1,8.75E-1,1.E0),.UNSPECIFIED.);
#104=B_SPLINE_CURVE_WITH_KNOTS('',3,(#93,#94,#95,#96,#97,#98,#99,#100,#101,#102,
#103),.UNSPECIFIED.,.F.,.F.,(4,1,1,1,1,1,1,1,4),(0.E0,1.25E-1,2.5E-1,3.75E-1,
5.E-1,6.25E-1,7.5E-1,8.75E-1,1.E0),.UNSPECIFIED.);
#116=B_SPLINE_CURVE_WITH_KNOTS('',3,(#105,#106,#107,#108,#109,#110,#111,#112,
#113,#114,#115),.UNSPECIFIED.,.F.,.F.,(4,1,1,1,1,1,1,1,4),(0.E0,1.25E-1,2.5E-1,
3.75E-1,5.E-1,6.25E-1,7.5E-1,8.75E-1,1.E0),.UNSPECIFIED.);
#129=CIRCLE('',#128,1.E1);
#149=B_SPLINE_CURVE_WITH_KNOTS('',3,(#138,#139,#140,#141,#142,#143,#144,#145,
#146,#147,#148),.UNSPECIFIED.,.F.,.F.,(4,1,1,1,1,1,1,1,4),(0.E0,1.25E-1,2.5E-1,
3.75E-1,5.E-1,6.25E-1,7.5E-1,8.75E-1,1.E0),.UNSPECIFIED.);
#161=B_SPLINE_CURVE_WITH_KNOTS('',3,(#150,#151,#152,#153,#154,#155,#156,#157,
#158,#159,#160),.UNSPECIFIED.,.F.,.F.,(4,1,1,1,1,1,1,1,4),(0.E0,1.25E-1,2.5E-1,
3.75E-1,5.E-1,6.25E-1,7.5E-1,8.75E-1,1.E0),.UNSPECIFIED.);
#166=CIRCLE('',#165,9.045E0);
#171=CIRCLE('',#170,9.395E0);
#180=CIRCLE('',#179,9.395E0);
#189=CIRCLE('',#188,9.781617859440E0);
#194=CIRCLE('',#193,9.781617859440E0);
#199=CIRCLE('',#198,1.E1);
#208=CIRCLE('',#207,1.E1);
#221=CIRCLE('',#220,9.781617859440E0);
#230=CIRCLE('',#229,9.781617859440E0);
#235=CIRCLE('',#234,9.395E0);
#240=CIRCLE('',#239,9.395E0);
#286=EDGE_CURVE('',#243,#244,#9,.T.);
#288=EDGE_CURVE('',#244,#260,#235,.T.);
#290=EDGE_CURVE('',#259,#260,#18,.T.);
#292=EDGE_CURVE('',#243,#259,#5,.T.);
#303=EDGE_CURVE('',#243,#259,#14,.T.);
#306=EDGE_CURVE('',#244,#260,#240,.T.);
#316=EDGE_CURVE('',#277,#280,#30,.T.);
#318=EDGE_CURVE('',#277,#259,#34,.T.);
#321=EDGE_CURVE('',#256,#243,#38,.T.);
#323=EDGE_CURVE('',#256,#272,#43,.T.);
#325=EDGE_CURVE('',#272,#278,#47,.T.);
#327=EDGE_CURVE('',#280,#278,#59,.T.);
#337=EDGE_CURVE('',#273,#274,#75,.T.);
#339=EDGE_CURVE('',#274,#276,#137,.T.);
#341=EDGE_CURVE('',#276,#277,#149,.T.);
#344=EDGE_CURVE('',#279,#280,#63,.T.);
#346=EDGE_CURVE('',#279,#273,#104,.T.);
#357=EDGE_CURVE('',#264,#273,#133,.T.);
#359=EDGE_CURVE('',#248,#264,#80,.T.);
#361=EDGE_CURVE('',#248,#250,#124,.T.);
#363=EDGE_CURVE('',#250,#267,#199,.T.);
#365=EDGE_CURVE('',#275,#267,#120,.T.);
#367=EDGE_CURVE('',#274,#275,#92,.T.);
#378=EDGE_CURVE('',#275,#279,#116,.T.);
#381=EDGE_CURVE('',#250,#267,#208,.T.);
#384=EDGE_CURVE('',#248,#264,#129,.T.);
#399=EDGE_CURVE('',#278,#276,#161,.T.);
#413=EDGE_CURVE('',#256,#272,#166,.T.);
#426=EDGE_CURVE('',#255,#256,#175,.T.);
#429=EDGE_CURVE('',#271,#272,#184,.T.);
#431=EDGE_CURVE('',#255,#271,#171,.T.);
#442=EDGE_CURVE('',#255,#271,#180,.T.);
#454=EDGE_CURVE('',#252,#268,#189,.T.);
#456=EDGE_CURVE('',#252,#268,#194,.T.);
#470=EDGE_CURVE('',#250,#252,#203,.T.);
#473=EDGE_CURVE('',#267,#268,#212,.T.);
#496=EDGE_CURVE('',#247,#248,#216,.T.);
#498=EDGE_CURVE('',#247,#263,#221,.T.);
#500=EDGE_CURVE('',#263,#264,#225,.T.);
#514=EDGE_CURVE('',#247,#263,#230,.T.);
#535=(LENGTH_UNIT()NAMED_UNIT(*)SI_UNIT(.MILLI.,.METRE.));
#537=(NAMED_UNIT(*)PLANE_ANGLE_UNIT()SI_UNIT($,.RADIAN.));
#540=(NAMED_UNIT(*)SI_UNIT($,.STERADIAN.)SOLID_ANGLE_UNIT());
#543=ADVANCED_BREP_SHAPE_REPRESENTATION('',(#534),#542);
#550=PRODUCT_DEFINITION('design','',#549,#546);
#551=PRODUCT_DEFINITION_SHAPE('','SHAPE FOR PG__A_2016_10_21.',#550);
#552=SHAPE_DEFINITION_REPRESENTATION(#551,#543);
ENDSEC;
END-ISO-10303-21;
