ISO-10303-21;
HEADER;
FILE_DESCRIPTION((''),'2;1');
FILE_NAME('PG__A_2016_10_21','2016-08-09T',('deusss58'),(''),
'PRO/ENGINEER BY PARAMETRIC TECHNOLOGY CORPORATION, 2014430',
'PRO/ENGINEER BY PARAMETRIC TECHNOLOGY CORPORATION, 2014430','');
FILE_SCHEMA(('CONFIG_CONTROL_DESIGN'));
ENDSEC;
DATA;
#1=CARTESIAN_POINT('',(0.E0,0.E0,4.94E1));
#2=DIRECTION('',(0.E0,0.E0,-1.E0));
#3=DIRECTION('',(0.E0,-1.E0,0.E0));
#4=AXIS2_PLACEMENT_3D('',#1,#2,#3);
#6=DIRECTION('',(0.E0,-7.071067811865E-1,7.071067811866E-1));
#7=VECTOR('',#6,8.485281374238E-1);
#8=CARTESIAN_POINT('',(0.E0,-1.05115E2,4.94E1));
#9=LINE('',#8,#7);
#10=CARTESIAN_POINT('',(0.E0,0.E0,4.94E1));
#11=DIRECTION('',(0.E0,0.E0,1.E0));
#12=DIRECTION('',(0.E0,-1.E0,0.E0));
#13=AXIS2_PLACEMENT_3D('',#10,#11,#12);
#15=DIRECTION('',(0.E0,7.071067811865E-1,7.071067811866E-1));
#16=VECTOR('',#15,8.485281374238E-1);
#17=CARTESIAN_POINT('',(-2.334021864669E-14,1.05115E2,4.94E1));
#18=LINE('',#17,#16);
#19=CARTESIAN_POINT('',(3.555224204739E-14,1.05115E2,6.E0));
#20=CARTESIAN_POINT('',(5.314792154127E-1,1.05115E2,6.E0));
#21=CARTESIAN_POINT('',(1.556694461427E0,1.051071771059E2,5.865521755695E0));
#22=CARTESIAN_POINT('',(3.045213776477E0,1.050739433197E2,5.251126134010E0));
#23=CARTESIAN_POINT('',(4.291577674720E0,1.050293034465E2,4.290053472119E0));
#24=CARTESIAN_POINT('',(5.262583702359E0,1.049841723958E2,3.026226931723E0));
#25=CARTESIAN_POINT('',(5.864686019286E0,1.049514811762E2,1.553526476693E0));
#26=CARTESIAN_POINT('',(5.999999995387E0,1.049436192686E2,5.301954238923E-1));
#27=CARTESIAN_POINT('',(5.999999995387E0,1.049436192686E2,-1.432238297308E-7));
#29=DIRECTION('',(0.E0,0.E0,1.E0));
#30=VECTOR('',#29,4.34E1);
#31=CARTESIAN_POINT('',(3.555224204739E-14,1.05115E2,6.E0));
#32=LINE('',#31,#30);
#33=DIRECTION('',(0.E0,0.E0,1.E0));
#34=VECTOR('',#33,9.88E1);
#35=CARTESIAN_POINT('',(0.E0,-1.05115E2,-4.94E1));
#36=LINE('',#35,#34);
#37=CARTESIAN_POINT('',(0.E0,0.E0,-4.94E1));
#38=DIRECTION('',(0.E0,0.E0,1.E0));
#39=DIRECTION('',(0.E0,-1.E0,0.E0));
#40=AXIS2_PLACEMENT_3D('',#37,#38,#39);
#42=DIRECTION('',(0.E0,0.E0,1.E0));
#43=VECTOR('',#42,4.34E1);
#44=CARTESIAN_POINT('',(-2.334021864669E-14,1.05115E2,-4.94E1));
#45=LINE('',#44,#43);
#46=CARTESIAN_POINT('',(5.999999995387E0,1.049436192686E2,-1.432238297308E-7));
#47=CARTESIAN_POINT('',(5.999999995387E0,1.049436192686E2,-4.523249168145E-1));
#48=CARTESIAN_POINT('',(5.901416790934E0,1.049493377677E2,-1.332875637735E0));
#49=CARTESIAN_POINT('',(5.452824578628E0,1.049739815756E2,-2.621593776694E0));
#50=CARTESIAN_POINT('',(4.742794393247E0,1.050090968764E2,-3.757652130585E0));
#51=CARTESIAN_POINT('',(3.772289218323E0,1.050490291130E2,-4.730137904383E0));
#52=CARTESIAN_POINT('',(2.646142009948E0,1.050840943888E2,-5.441812657526E0));
#53=CARTESIAN_POINT('',(1.336179021221E0,1.051093234543E2,-5.902127084355E0));
#54=CARTESIAN_POINT('',(4.532425827912E-1,1.05115E2,-6.E0));
#55=CARTESIAN_POINT('',(1.374610125493E-14,1.05115E2,-6.E0));
#57=DIRECTION('',(-1.931048546154E-9,-1.E0,-5.995618449834E-8));
#58=VECTOR('',#57,2.388808263808E0);
#59=CARTESIAN_POINT('',(6.E0,1.073324275324E2,0.E0));
#60=LINE('',#59,#58);
#61=CARTESIAN_POINT('',(4.142276119597E-14,1.075E2,6.E0));
#62=CARTESIAN_POINT('',(-4.529989789804E-1,1.075E2,6.E0));
#63=CARTESIAN_POINT('',(-1.335573133890E0,1.074944559014E2,5.902242315246E0));
#64=CARTESIAN_POINT('',(-2.645512938742E0,1.074697960202E2,5.442119442973E0));
#65=CARTESIAN_POINT('',(-3.771754191931E0,1.074355127012E2,4.730566678347E0));
#66=CARTESIAN_POINT('',(-4.742404311756E0,1.073964662932E2,3.758155351771E0));
#67=CARTESIAN_POINT('',(-5.452595632029E0,1.073621261208E2,2.622079855792E0));
#68=CARTESIAN_POINT('',(-5.901330465800E0,1.073380236201E2,1.333328494354E0));
#69=CARTESIAN_POINT('',(-6.E0,1.073324275324E2,4.525045031166E-1));
#70=CARTESIAN_POINT('',(-6.E0,1.073324275324E2,0.E0));
#72=CARTESIAN_POINT('',(0.E0,0.E0,4.88E1));
#73=DIRECTION('',(0.E0,0.E0,-1.E0));
#74=DIRECTION('',(0.E0,-1.E0,0.E0));
#75=AXIS2_PLACEMENT_3D('',#72,#73,#74);
#77=CARTESIAN_POINT('',(-6.E0,1.073324275324E2,0.E0));
#78=CARTESIAN_POINT('',(-6.E0,1.073324275324E2,-5.302929724682E-1));
#79=CARTESIAN_POINT('',(-5.864687330156E0,1.073401153434E2,-1.553739498493E0));
#80=CARTESIAN_POINT('',(-5.262183824763E0,1.073720965397E2,-3.026820128625E0));
#81=CARTESIAN_POINT('',(-4.291780174564E0,1.074161999259E2,-4.289894113468E0));
#82=CARTESIAN_POINT('',(-3.044271670012E0,1.074598818059E2,-5.251703109459E0));
#83=CARTESIAN_POINT('',(-1.556720422517E0,1.074923462896E2,-5.865421157097E0));
#84=CARTESIAN_POINT('',(-5.314854551560E-1,1.075E2,-6.E0));
#85=CARTESIAN_POINT('',(2.039136424913E-13,1.075E2,-6.E0));
#87=CARTESIAN_POINT('',(6.E0,1.073324275324E2,0.E0));
#88=CARTESIAN_POINT('',(6.E0,1.073324275324E2,5.302078754185E-1));
#89=CARTESIAN_POINT('',(5.864678428689E0,1.073401148707E2,1.553555703084E0));
#90=CARTESIAN_POINT('',(5.262574642342E0,1.073720787668E2,3.026239799300E0));
#91=CARTESIAN_POINT('',(4.291572806471E0,1.074162062439E2,4.290057446773E0));
#92=CARTESIAN_POINT('',(3.045217770427E0,1.074598542499E2,5.251121942109E0));
#93=CARTESIAN_POINT('',(1.556716148686E0,1.074923502997E2,5.865515573645E0));
#94=CARTESIAN_POINT('',(5.314904097733E-1,1.075E2,6.E0));
#95=CARTESIAN_POINT('',(4.142276119597E-14,1.075E2,6.E0));
#97=CARTESIAN_POINT('',(2.039136424913E-13,1.075E2,-6.E0));
#98=CARTESIAN_POINT('',(4.532519280518E-1,1.075E2,-6.E0));
#99=CARTESIAN_POINT('',(1.336197925774E0,1.074944491381E2,-5.902122711414E0));
#100=CARTESIAN_POINT('',(2.646149452863E0,1.074697799596E2,-5.441807983800E0));
#101=CARTESIAN_POINT('',(3.772288039900E0,1.074354935541E2,-4.730137966143E0));
#102=CARTESIAN_POINT('',(4.742787819012E0,1.073964489175E2,-3.757659630830E0));
#103=CARTESIAN_POINT('',(5.452817100674E0,1.073621145999E2,-2.621607746543E0));
#104=CARTESIAN_POINT('',(5.901411885622E0,1.073380190242E2,-1.332898499450E0));
#105=CARTESIAN_POINT('',(6.E0,1.073324275324E2,-4.523346613896E-1));
#106=CARTESIAN_POINT('',(6.E0,1.073324275324E2,0.E0));
#108=DIRECTION('',(0.E0,0.E0,-1.E0));
#109=VECTOR('',#108,4.28E1);
#110=CARTESIAN_POINT('',(2.039136424913E-13,1.075E2,-6.E0));
#111=LINE('',#110,#109);
#112=DIRECTION('',(0.E0,0.E0,-1.E0));
#113=VECTOR('',#112,9.76E1);
#114=CARTESIAN_POINT('',(0.E0,-1.075E2,4.88E1));
#115=LINE('',#114,#113);
#116=CARTESIAN_POINT('',(0.E0,0.E0,4.88E1));
#117=DIRECTION('',(0.E0,0.E0,1.E0));
#118=DIRECTION('',(0.E0,-1.E0,0.E0));
#119=AXIS2_PLACEMENT_3D('',#116,#117,#118);
#121=DIRECTION('',(0.E0,0.E0,-1.E0));
#122=VECTOR('',#121,4.28E1);
#123=CARTESIAN_POINT('',(-2.386979502944E-14,1.075E2,4.88E1));
#124=LINE('',#123,#122);
#125=DIRECTION('',(1.644031975871E-9,-1.E0,5.480905973794E-8));
#126=VECTOR('',#125,2.388808263936E0);
#127=CARTESIAN_POINT('',(-6.E0,1.073324275324E2,0.E0));
#128=LINE('',#127,#126);
#129=CARTESIAN_POINT('',(-5.999999996073E0,1.049436192685E2,1.309283353304E-7));
#130=CARTESIAN_POINT('',(-5.999999996073E0,1.049436192685E2,4.524948622063E-1));
#131=CARTESIAN_POINT('',(-5.901335328093E0,1.049493424707E2,1.333305916816E0));
#132=CARTESIAN_POINT('',(-5.452602882970E0,1.049739933709E2,2.622066427037E0));
#133=CARTESIAN_POINT('',(-4.742410284753E0,1.050091146755E2,3.758148655758E0));
#134=CARTESIAN_POINT('',(-3.771754411637E0,1.050490487303E2,4.730567390246E0));
#135=CARTESIAN_POINT('',(-2.645504395739E0,1.050841108419E2,5.442124642944E0));
#136=CARTESIAN_POINT('',(-1.335553266194E0,1.051093303812E2,5.902246864178E0));
#137=CARTESIAN_POINT('',(-4.529892486236E-1,1.05115E2,6.E0));
#138=CARTESIAN_POINT('',(3.555224204739E-14,1.05115E2,6.E0));
#140=CARTESIAN_POINT('',(1.374610125493E-14,1.05115E2,-6.E0));
#141=CARTESIAN_POINT('',(-5.314738402056E-1,1.05115E2,-6.E0));
#142=CARTESIAN_POINT('',(-1.556697705833E0,1.051071730176E2,-5.865427561248E0));
#143=CARTESIAN_POINT('',(-3.044266566212E0,1.050739715346E2,-5.251707948517E0));
#144=CARTESIAN_POINT('',(-4.291784315474E0,1.050292970164E2,-4.289890907199E0));
#145=CARTESIAN_POINT('',(-5.262192578258E0,1.049841905890E2,-3.026807873103E0));
#146=CARTESIAN_POINT('',(-5.864694887298E0,1.049514816617E2,-1.553710524138E0));
#147=CARTESIAN_POINT('',(-5.999999996073E0,1.049436192685E2,
-5.302805971372E-1));
#148=CARTESIAN_POINT('',(-5.999999996073E0,1.049436192685E2,1.309283353304E-7));
#150=CARTESIAN_POINT('',(0.E0,0.E0,-4.94E1));
#151=DIRECTION('',(0.E0,0.E0,-1.E0));
#152=DIRECTION('',(0.E0,-1.E0,0.E0));
#153=AXIS2_PLACEMENT_3D('',#150,#151,#152);
#155=CARTESIAN_POINT('',(0.E0,0.E0,-5.E1));
#156=DIRECTION('',(0.E0,0.E0,-1.E0));
#157=DIRECTION('',(0.E0,-1.E0,0.E0));
#158=AXIS2_PLACEMENT_3D('',#155,#156,#157);
#160=DIRECTION('',(0.E0,7.071067811865E-1,7.071067811866E-1));
#161=VECTOR('',#160,8.485281374238E-1);
#162=CARTESIAN_POINT('',(0.E0,-1.05715E2,-5.E1));
#163=LINE('',#162,#161);
#164=CARTESIAN_POINT('',(0.E0,0.E0,-5.E1));
#165=DIRECTION('',(0.E0,0.E0,1.E0));
#166=DIRECTION('',(0.E0,-1.E0,0.E0));
#167=AXIS2_PLACEMENT_3D('',#164,#165,#166);
#169=DIRECTION('',(0.E0,-7.071067811865E-1,7.071067811866E-1));
#170=VECTOR('',#169,8.485281374238E-1);
#171=CARTESIAN_POINT('',(-1.564896360643E-14,1.05715E2,-5.E1));
#172=LINE('',#171,#170);
#173=CARTESIAN_POINT('',(0.E0,0.E0,-5.E1));
#174=DIRECTION('',(0.E0,0.E0,-1.E0));
#175=DIRECTION('',(0.E0,-1.E0,0.E0));
#176=AXIS2_PLACEMENT_3D('',#173,#174,#175);
#178=CARTESIAN_POINT('',(0.E0,0.E0,-5.E1));
#179=DIRECTION('',(0.E0,0.E0,1.E0));
#180=DIRECTION('',(0.E0,-1.E0,0.E0));
#181=AXIS2_PLACEMENT_3D('',#178,#179,#180);
#183=CARTESIAN_POINT('',(0.E0,0.E0,-4.88E1));
#184=DIRECTION('',(0.E0,0.E0,-1.E0));
#185=DIRECTION('',(0.E0,-1.E0,0.E0));
#186=AXIS2_PLACEMENT_3D('',#183,#184,#185);
#188=DIRECTION('',(0.E0,3.420201433257E-1,-9.396926207859E-1));
#189=VECTOR('',#188,1.277013326971E0);
#190=CARTESIAN_POINT('',(0.E0,-1.075E2,-4.88E1));
#191=LINE('',#190,#189);
#192=CARTESIAN_POINT('',(0.E0,0.E0,-4.88E1));
#193=DIRECTION('',(0.E0,0.E0,1.E0));
#194=DIRECTION('',(0.E0,-1.E0,0.E0));
#195=AXIS2_PLACEMENT_3D('',#192,#193,#194);
#197=DIRECTION('',(0.E0,-3.420201433257E-1,-9.396926207859E-1));
#198=VECTOR('',#197,1.277013326971E0);
#199=CARTESIAN_POINT('',(-2.386979502944E-14,1.075E2,-4.88E1));
#200=LINE('',#199,#198);
#201=DIRECTION('',(0.E0,-3.420201433257E-1,-9.396926207859E-1));
#202=VECTOR('',#201,1.277013326971E0);
#203=CARTESIAN_POINT('',(0.E0,-1.070632357189E2,5.E1));
#204=LINE('',#203,#202);
#205=CARTESIAN_POINT('',(0.E0,0.E0,5.E1));
#206=DIRECTION('',(0.E0,0.E0,1.E0));
#207=DIRECTION('',(0.E0,-1.E0,0.E0));
#208=AXIS2_PLACEMENT_3D('',#205,#206,#207);
#210=DIRECTION('',(0.E0,3.420201433257E-1,-9.396926207859E-1));
#211=VECTOR('',#210,1.277013326971E0);
#212=CARTESIAN_POINT('',(-1.584854258480E-14,1.070632357189E2,5.E1));
#213=LINE('',#212,#211);
#214=CARTESIAN_POINT('',(0.E0,0.E0,5.E1));
#215=DIRECTION('',(0.E0,0.E0,-1.E0));
#216=DIRECTION('',(0.E0,-1.E0,0.E0));
#217=AXIS2_PLACEMENT_3D('',#214,#215,#216);
#219=CARTESIAN_POINT('',(0.E0,0.E0,5.E1));
#220=DIRECTION('',(0.E0,0.E0,-1.E0));
#221=DIRECTION('',(0.E0,-1.E0,0.E0));
#222=AXIS2_PLACEMENT_3D('',#219,#220,#221);
#224=CARTESIAN_POINT('',(0.E0,0.E0,5.E1));
#225=DIRECTION('',(0.E0,0.E0,1.E0));
#226=DIRECTION('',(0.E0,-1.E0,0.E0));
#227=AXIS2_PLACEMENT_3D('',#224,#225,#226);
#229=CARTESIAN_POINT('',(0.E0,-1.05115E2,4.94E1));
#230=CARTESIAN_POINT('',(0.E0,-1.05715E2,5.E1));
#231=VERTEX_POINT('',#229);
#232=VERTEX_POINT('',#230);
#233=CARTESIAN_POINT('',(0.E0,-1.070632357189E2,5.E1));
#234=CARTESIAN_POINT('',(0.E0,-1.075E2,4.88E1));
#235=VERTEX_POINT('',#233);
#236=VERTEX_POINT('',#234);
#237=CARTESIAN_POINT('',(0.E0,-1.075E2,-4.88E1));
#238=VERTEX_POINT('',#237);
#239=CARTESIAN_POINT('',(0.E0,-1.070632357189E2,-5.E1));
#240=VERTEX_POINT('',#239);
#241=CARTESIAN_POINT('',(0.E0,-1.05715E2,-5.E1));
#242=CARTESIAN_POINT('',(0.E0,-1.05115E2,-4.94E1));
#243=VERTEX_POINT('',#241);
#244=VERTEX_POINT('',#242);
#245=CARTESIAN_POINT('',(-2.334021864669E-14,1.05115E2,4.94E1));
#246=CARTESIAN_POINT('',(-1.564896360643E-14,1.05715E2,5.E1));
#247=VERTEX_POINT('',#245);
#248=VERTEX_POINT('',#246);
#249=CARTESIAN_POINT('',(-1.584854258480E-14,1.070632357189E2,5.E1));
#250=CARTESIAN_POINT('',(-2.386979502944E-14,1.075E2,4.88E1));
#251=VERTEX_POINT('',#249);
#252=VERTEX_POINT('',#250);
#253=CARTESIAN_POINT('',(-2.386979502944E-14,1.075E2,-4.88E1));
#254=CARTESIAN_POINT('',(-1.584854258480E-14,1.070632357189E2,-5.E1));
#255=VERTEX_POINT('',#253);
#256=VERTEX_POINT('',#254);
#257=CARTESIAN_POINT('',(-1.564896360643E-14,1.05715E2,-5.E1));
#258=CARTESIAN_POINT('',(-2.334021864669E-14,1.05115E2,-4.94E1));
#259=VERTEX_POINT('',#257);
#260=VERTEX_POINT('',#258);
#261=VERTEX_POINT('',#61);
#262=VERTEX_POINT('',#70);
#263=VERTEX_POINT('',#85);
#264=VERTEX_POINT('',#129);
#265=VERTEX_POINT('',#138);
#266=VERTEX_POINT('',#140);
#267=VERTEX_POINT('',#87);
#268=VERTEX_POINT('',#27);
#269=CARTESIAN_POINT('',(0.E0,0.E0,4.97E1));
#270=DIRECTION('',(0.E0,0.E0,1.E0));
#271=DIRECTION('',(0.E0,1.E0,0.E0));
#272=AXIS2_PLACEMENT_3D('',#269,#270,#271);
#273=CONICAL_SURFACE('',#272,1.05415E2,4.5E1);
#275=ORIENTED_EDGE('',*,*,#274,.T.);
#277=ORIENTED_EDGE('',*,*,#276,.T.);
#279=ORIENTED_EDGE('',*,*,#278,.F.);
#281=ORIENTED_EDGE('',*,*,#280,.F.);
#282=EDGE_LOOP('',(#275,#277,#279,#281));
#283=FACE_OUTER_BOUND('',#282,.F.);
#284=ADVANCED_FACE('',(#283),#273,.F.);
#285=CARTESIAN_POINT('',(0.E0,0.E0,4.97E1));
#286=DIRECTION('',(0.E0,0.E0,1.E0));
#287=DIRECTION('',(0.E0,1.E0,0.E0));
#288=AXIS2_PLACEMENT_3D('',#285,#286,#287);
#289=CONICAL_SURFACE('',#288,1.05415E2,4.5E1);
#290=ORIENTED_EDGE('',*,*,#274,.F.);
#292=ORIENTED_EDGE('',*,*,#291,.T.);
#293=ORIENTED_EDGE('',*,*,#278,.T.);
#295=ORIENTED_EDGE('',*,*,#294,.F.);
#296=EDGE_LOOP('',(#290,#292,#293,#295));
#297=FACE_OUTER_BOUND('',#296,.F.);
#298=ADVANCED_FACE('',(#297),#289,.F.);
#299=CARTESIAN_POINT('',(0.E0,0.E0,5.5E1));
#300=DIRECTION('',(0.E0,0.E0,-1.E0));
#301=DIRECTION('',(0.E0,-1.E0,0.E0));
#302=AXIS2_PLACEMENT_3D('',#299,#300,#301);
#303=CYLINDRICAL_SURFACE('',#302,1.05115E2);
#305=ORIENTED_EDGE('',*,*,#304,.F.);
#307=ORIENTED_EDGE('',*,*,#306,.T.);
#308=ORIENTED_EDGE('',*,*,#291,.F.);
#310=ORIENTED_EDGE('',*,*,#309,.F.);
#312=ORIENTED_EDGE('',*,*,#311,.T.);
#314=ORIENTED_EDGE('',*,*,#313,.T.);
#316=ORIENTED_EDGE('',*,*,#315,.F.);
#317=EDGE_LOOP('',(#305,#307,#308,#310,#312,#314,#316));
#318=FACE_OUTER_BOUND('',#317,.F.);
#319=ADVANCED_FACE('',(#318),#303,.F.);
#320=CARTESIAN_POINT('',(0.E0,1.075E2,0.E0));
#321=DIRECTION('',(0.E0,-1.E0,0.E0));
#322=DIRECTION('',(1.E0,0.E0,0.E0));
#323=AXIS2_PLACEMENT_3D('',#320,#321,#322);
#324=CYLINDRICAL_SURFACE('',#323,6.E0);
#326=ORIENTED_EDGE('',*,*,#325,.T.);
#328=ORIENTED_EDGE('',*,*,#327,.T.);
#330=ORIENTED_EDGE('',*,*,#329,.T.);
#331=ORIENTED_EDGE('',*,*,#304,.T.);
#333=ORIENTED_EDGE('',*,*,#332,.F.);
#335=ORIENTED_EDGE('',*,*,#334,.T.);
#336=EDGE_LOOP('',(#326,#328,#330,#331,#333,#335));
#337=FACE_OUTER_BOUND('',#336,.F.);
#338=ADVANCED_FACE('',(#337),#324,.F.);
#339=CARTESIAN_POINT('',(0.E0,0.E0,5.5E1));
#340=DIRECTION('',(0.E0,0.E0,-1.E0));
#341=DIRECTION('',(0.E0,-1.E0,0.E0));
#342=AXIS2_PLACEMENT_3D('',#339,#340,#341);
#343=CYLINDRICAL_SURFACE('',#342,1.075E2);
#344=ORIENTED_EDGE('',*,*,#325,.F.);
#346=ORIENTED_EDGE('',*,*,#345,.F.);
#348=ORIENTED_EDGE('',*,*,#347,.F.);
#350=ORIENTED_EDGE('',*,*,#349,.T.);
#352=ORIENTED_EDGE('',*,*,#351,.T.);
#354=ORIENTED_EDGE('',*,*,#353,.F.);
#356=ORIENTED_EDGE('',*,*,#355,.F.);
#357=EDGE_LOOP('',(#344,#346,#348,#350,#352,#354,#356));
#358=FACE_OUTER_BOUND('',#357,.F.);
#359=ADVANCED_FACE('',(#358),#343,.T.);
#360=CARTESIAN_POINT('',(0.E0,0.E0,5.5E1));
#361=DIRECTION('',(0.E0,0.E0,-1.E0));
#362=DIRECTION('',(0.E0,-1.E0,0.E0));
#363=AXIS2_PLACEMENT_3D('',#360,#361,#362);
#364=CYLINDRICAL_SURFACE('',#363,1.075E2);
#365=ORIENTED_EDGE('',*,*,#334,.F.);
#367=ORIENTED_EDGE('',*,*,#366,.F.);
#368=ORIENTED_EDGE('',*,*,#353,.T.);
#370=ORIENTED_EDGE('',*,*,#369,.F.);
#371=ORIENTED_EDGE('',*,*,#349,.F.);
#373=ORIENTED_EDGE('',*,*,#372,.T.);
#374=ORIENTED_EDGE('',*,*,#345,.T.);
#375=EDGE_LOOP('',(#365,#367,#368,#370,#371,#373,#374));
#376=FACE_OUTER_BOUND('',#375,.F.);
#377=ADVANCED_FACE('',(#376),#364,.T.);
#378=CARTESIAN_POINT('',(0.E0,1.075E2,0.E0));
#379=DIRECTION('',(0.E0,-1.E0,0.E0));
#380=DIRECTION('',(1.E0,0.E0,0.E0));
#381=AXIS2_PLACEMENT_3D('',#378,#379,#380);
#382=CYLINDRICAL_SURFACE('',#381,6.E0);
#383=ORIENTED_EDGE('',*,*,#355,.T.);
#384=ORIENTED_EDGE('',*,*,#366,.T.);
#385=ORIENTED_EDGE('',*,*,#332,.T.);
#386=ORIENTED_EDGE('',*,*,#315,.T.);
#388=ORIENTED_EDGE('',*,*,#387,.T.);
#389=ORIENTED_EDGE('',*,*,#327,.F.);
#390=EDGE_LOOP('',(#383,#384,#385,#386,#388,#389));
#391=FACE_OUTER_BOUND('',#390,.F.);
#392=ADVANCED_FACE('',(#391),#382,.F.);
#393=CARTESIAN_POINT('',(0.E0,0.E0,5.5E1));
#394=DIRECTION('',(0.E0,0.E0,-1.E0));
#395=DIRECTION('',(0.E0,-1.E0,0.E0));
#396=AXIS2_PLACEMENT_3D('',#393,#394,#395);
#397=CYLINDRICAL_SURFACE('',#396,1.05115E2);
#398=ORIENTED_EDGE('',*,*,#329,.F.);
#399=ORIENTED_EDGE('',*,*,#387,.F.);
#400=ORIENTED_EDGE('',*,*,#313,.F.);
#402=ORIENTED_EDGE('',*,*,#401,.F.);
#403=ORIENTED_EDGE('',*,*,#309,.T.);
#404=ORIENTED_EDGE('',*,*,#280,.T.);
#405=ORIENTED_EDGE('',*,*,#306,.F.);
#406=EDGE_LOOP('',(#398,#399,#400,#402,#403,#404,#405));
#407=FACE_OUTER_BOUND('',#406,.F.);
#408=ADVANCED_FACE('',(#407),#397,.F.);
#409=CARTESIAN_POINT('',(0.E0,0.E0,-4.97E1));
#410=DIRECTION('',(0.E0,0.E0,-1.E0));
#411=DIRECTION('',(0.E0,-1.E0,0.E0));
#412=AXIS2_PLACEMENT_3D('',#409,#410,#411);
#413=CONICAL_SURFACE('',#412,1.05415E2,4.5E1);
#415=ORIENTED_EDGE('',*,*,#414,.T.);
#416=ORIENTED_EDGE('',*,*,#401,.T.);
#418=ORIENTED_EDGE('',*,*,#417,.F.);
#420=ORIENTED_EDGE('',*,*,#419,.F.);
#421=EDGE_LOOP('',(#415,#416,#418,#420));
#422=FACE_OUTER_BOUND('',#421,.F.);
#423=ADVANCED_FACE('',(#422),#413,.F.);
#424=CARTESIAN_POINT('',(0.E0,0.E0,-4.97E1));
#425=DIRECTION('',(0.E0,0.E0,-1.E0));
#426=DIRECTION('',(0.E0,-1.E0,0.E0));
#427=AXIS2_PLACEMENT_3D('',#424,#425,#426);
#428=CONICAL_SURFACE('',#427,1.05415E2,4.5E1);
#429=ORIENTED_EDGE('',*,*,#414,.F.);
#431=ORIENTED_EDGE('',*,*,#430,.T.);
#432=ORIENTED_EDGE('',*,*,#417,.T.);
#433=ORIENTED_EDGE('',*,*,#311,.F.);
#434=EDGE_LOOP('',(#429,#431,#432,#433));
#435=FACE_OUTER_BOUND('',#434,.F.);
#436=ADVANCED_FACE('',(#435),#428,.F.);
#437=CARTESIAN_POINT('',(0.E0,0.E0,-5.E1));
#438=DIRECTION('',(0.E0,0.E0,-1.E0));
#439=DIRECTION('',(0.E0,-1.E0,0.E0));
#440=AXIS2_PLACEMENT_3D('',#437,#438,#439);
#441=PLANE('',#440);
#443=ORIENTED_EDGE('',*,*,#442,.F.);
#445=ORIENTED_EDGE('',*,*,#444,.T.);
#446=EDGE_LOOP('',(#443,#445));
#447=FACE_OUTER_BOUND('',#446,.F.);
#448=ORIENTED_EDGE('',*,*,#430,.F.);
#449=ORIENTED_EDGE('',*,*,#419,.T.);
#450=EDGE_LOOP('',(#448,#449));
#451=FACE_BOUND('',#450,.F.);
#452=ADVANCED_FACE('',(#447,#451),#441,.T.);
#453=CARTESIAN_POINT('',(0.E0,0.E0,-4.94E1));
#454=DIRECTION('',(0.E0,0.E0,1.E0));
#455=DIRECTION('',(0.E0,1.E0,0.E0));
#456=AXIS2_PLACEMENT_3D('',#453,#454,#455);
#457=CONICAL_SURFACE('',#456,1.072816178594E2,2.E1);
#459=ORIENTED_EDGE('',*,*,#458,.T.);
#460=ORIENTED_EDGE('',*,*,#442,.T.);
#462=ORIENTED_EDGE('',*,*,#461,.F.);
#463=ORIENTED_EDGE('',*,*,#351,.F.);
#464=EDGE_LOOP('',(#459,#460,#462,#463));
#465=FACE_OUTER_BOUND('',#464,.F.);
#466=ADVANCED_FACE('',(#465),#457,.T.);
#467=CARTESIAN_POINT('',(0.E0,0.E0,-4.94E1));
#468=DIRECTION('',(0.E0,0.E0,1.E0));
#469=DIRECTION('',(0.E0,1.E0,0.E0));
#470=AXIS2_PLACEMENT_3D('',#467,#468,#469);
#471=CONICAL_SURFACE('',#470,1.072816178594E2,2.E1);
#472=ORIENTED_EDGE('',*,*,#458,.F.);
#473=ORIENTED_EDGE('',*,*,#369,.T.);
#474=ORIENTED_EDGE('',*,*,#461,.T.);
#475=ORIENTED_EDGE('',*,*,#444,.F.);
#476=EDGE_LOOP('',(#472,#473,#474,#475));
#477=FACE_OUTER_BOUND('',#476,.F.);
#478=ADVANCED_FACE('',(#477),#471,.T.);
#479=CARTESIAN_POINT('',(0.E0,0.E0,4.94E1));
#480=DIRECTION('',(0.E0,0.E0,-1.E0));
#481=DIRECTION('',(0.E0,-1.E0,0.E0));
#482=AXIS2_PLACEMENT_3D('',#479,#480,#481);
#483=CONICAL_SURFACE('',#482,1.072816178594E2,2.E1);
#485=ORIENTED_EDGE('',*,*,#484,.F.);
#487=ORIENTED_EDGE('',*,*,#486,.T.);
#489=ORIENTED_EDGE('',*,*,#488,.T.);
#490=ORIENTED_EDGE('',*,*,#372,.F.);
#491=EDGE_LOOP('',(#485,#487,#489,#490));
#492=FACE_OUTER_BOUND('',#491,.F.);
#493=ADVANCED_FACE('',(#492),#483,.T.);
#494=CARTESIAN_POINT('',(0.E0,0.E0,4.94E1));
#495=DIRECTION('',(0.E0,0.E0,-1.E0));
#496=DIRECTION('',(0.E0,-1.E0,0.E0));
#497=AXIS2_PLACEMENT_3D('',#494,#495,#496);
#498=CONICAL_SURFACE('',#497,1.072816178594E2,2.E1);
#499=ORIENTED_EDGE('',*,*,#484,.T.);
#500=ORIENTED_EDGE('',*,*,#347,.T.);
#501=ORIENTED_EDGE('',*,*,#488,.F.);
#503=ORIENTED_EDGE('',*,*,#502,.F.);
#504=EDGE_LOOP('',(#499,#500,#501,#503));
#505=FACE_OUTER_BOUND('',#504,.F.);
#506=ADVANCED_FACE('',(#505),#498,.T.);
#507=CARTESIAN_POINT('',(0.E0,0.E0,5.E1));
#508=DIRECTION('',(0.E0,0.E0,-1.E0));
#509=DIRECTION('',(0.E0,-1.E0,0.E0));
#510=AXIS2_PLACEMENT_3D('',#507,#508,#509);
#511=PLANE('',#510);
#512=ORIENTED_EDGE('',*,*,#486,.F.);
#513=ORIENTED_EDGE('',*,*,#502,.T.);
#514=EDGE_LOOP('',(#512,#513));
#515=FACE_OUTER_BOUND('',#514,.F.);
#516=ORIENTED_EDGE('',*,*,#276,.F.);
#517=ORIENTED_EDGE('',*,*,#294,.T.);
#518=EDGE_LOOP('',(#516,#517));
#519=FACE_BOUND('',#518,.F.);
#520=ADVANCED_FACE('',(#515,#519),#511,.F.);
#521=CLOSED_SHELL('',(#284,#298,#319,#338,#359,#377,#392,#408,#423,#436,#452,
#466,#478,#493,#506,#520));
#522=MANIFOLD_SOLID_BREP('',#521);
#524=DIMENSIONAL_EXPONENTS(0.E0,0.E0,0.E0,0.E0,0.E0,0.E0,0.E0);
#526=PLANE_ANGLE_MEASURE_WITH_UNIT(PLANE_ANGLE_MEASURE(1.745329251994E-2),#525);
#527=(CONVERSION_BASED_UNIT('DEGREE',#526)NAMED_UNIT(*)PLANE_ANGLE_UNIT());
#529=UNCERTAINTY_MEASURE_WITH_UNIT(LENGTH_MEASURE(3.200653123410E-2),#523,
'closure',
'Maximum model space distance between geometric entities at asserted connectivities');
#530=(GEOMETRIC_REPRESENTATION_CONTEXT(3)GLOBAL_UNCERTAINTY_ASSIGNED_CONTEXT((
#529))GLOBAL_UNIT_ASSIGNED_CONTEXT((#523,#527,#528))REPRESENTATION_CONTEXT
('ID1','3'));
#532=APPLICATION_CONTEXT(
'CONFIGURATION CONTROLLED 3D DESIGNS OF MECHANICAL PARTS AND ASSEMBLIES');
#533=APPLICATION_PROTOCOL_DEFINITION('international standard',
'config_control_design',1994,#532);
#534=DESIGN_CONTEXT('',#532,'design');
#535=MECHANICAL_CONTEXT('',#532,'mechanical');
#536=PRODUCT('PG__A_2016_10_21','PG__A_2016_10_21','NOT SPECIFIED',(#535));
#537=PRODUCT_DEFINITION_FORMATION_WITH_SPECIFIED_SOURCE('1','LAST_VERSION',#536,
.MADE.);
#541=PRODUCT_CATEGORY('part','');
#542=PRODUCT_RELATED_PRODUCT_CATEGORY('detail','',(#536));
#543=PRODUCT_CATEGORY_RELATIONSHIP('','',#541,#542);
#544=SECURITY_CLASSIFICATION_LEVEL('unclassified');
#545=SECURITY_CLASSIFICATION('','',#544);
#546=CC_DESIGN_SECURITY_CLASSIFICATION(#545,(#537));
#547=APPROVAL_STATUS('approved');
#548=APPROVAL(#547,'');
#549=CC_DESIGN_APPROVAL(#548,(#545,#537,#538));
#550=CALENDAR_DATE(116,9,8);
#551=COORDINATED_UNIVERSAL_TIME_OFFSET(2,0,.AHEAD.);
#552=LOCAL_TIME(7,41,1.6E1,#551);
#553=DATE_AND_TIME(#550,#552);
#554=APPROVAL_DATE_TIME(#553,#548);
#555=DATE_TIME_ROLE('creation_date');
#556=CC_DESIGN_DATE_AND_TIME_ASSIGNMENT(#553,#555,(#538));
#557=DATE_TIME_ROLE('classification_date');
#558=CC_DESIGN_DATE_AND_TIME_ASSIGNMENT(#553,#557,(#545));
#559=PERSON('UNSPECIFIED','UNSPECIFIED',$,$,$,$);
#560=ORGANIZATION('UNSPECIFIED','UNSPECIFIED','UNSPECIFIED');
#561=PERSON_AND_ORGANIZATION(#559,#560);
#562=APPROVAL_ROLE('approver');
#563=APPROVAL_PERSON_ORGANIZATION(#561,#548,#562);
#564=PERSON_AND_ORGANIZATION_ROLE('creator');
#565=CC_DESIGN_PERSON_AND_ORGANIZATION_ASSIGNMENT(#561,#564,(#537,#538));
#566=PERSON_AND_ORGANIZATION_ROLE('design_supplier');
#567=CC_DESIGN_PERSON_AND_ORGANIZATION_ASSIGNMENT(#561,#566,(#537));
#568=PERSON_AND_ORGANIZATION_ROLE('classification_officer');
#569=CC_DESIGN_PERSON_AND_ORGANIZATION_ASSIGNMENT(#561,#568,(#545));
#570=PERSON_AND_ORGANIZATION_ROLE('design_owner');
#571=CC_DESIGN_PERSON_AND_ORGANIZATION_ASSIGNMENT(#561,#570,(#536));
#5=CIRCLE('',#4,1.05115E2);
#14=CIRCLE('',#13,1.05115E2);
#28=B_SPLINE_CURVE_WITH_KNOTS('',3,(#19,#20,#21,#22,#23,#24,#25,#26,#27),
.UNSPECIFIED.,.F.,.F.,(4,1,1,1,1,1,4),(0.E0,1.666666666667E-1,3.333333333333E-1,
5.E-1,6.666666666667E-1,8.333333333333E-1,1.E0),.UNSPECIFIED.);
#41=CIRCLE('',#40,1.05115E2);
#56=B_SPLINE_CURVE_WITH_KNOTS('',3,(#46,#47,#48,#49,#50,#51,#52,#53,#54,#55),
.UNSPECIFIED.,.F.,.F.,(4,1,1,1,1,1,1,4),(0.E0,1.428571428571E-1,
2.857142857143E-1,4.285714285714E-1,5.714285714286E-1,7.142857142857E-1,
8.571428571429E-1,1.E0),.UNSPECIFIED.);
#71=B_SPLINE_CURVE_WITH_KNOTS('',3,(#61,#62,#63,#64,#65,#66,#67,#68,#69,#70),
.UNSPECIFIED.,.F.,.F.,(4,1,1,1,1,1,1,4),(0.E0,1.428571428571E-1,
2.857142857143E-1,4.285714285714E-1,5.714285714286E-1,7.142857142857E-1,
8.571428571429E-1,1.E0),.UNSPECIFIED.);
#76=CIRCLE('',#75,1.075E2);
#86=B_SPLINE_CURVE_WITH_KNOTS('',3,(#77,#78,#79,#80,#81,#82,#83,#84,#85),
.UNSPECIFIED.,.F.,.F.,(4,1,1,1,1,1,4),(0.E0,1.666666666667E-1,3.333333333333E-1,
5.E-1,6.666666666667E-1,8.333333333333E-1,1.E0),.UNSPECIFIED.);
#96=B_SPLINE_CURVE_WITH_KNOTS('',3,(#87,#88,#89,#90,#91,#92,#93,#94,#95),
.UNSPECIFIED.,.F.,.F.,(4,1,1,1,1,1,4),(0.E0,1.666666666667E-1,3.333333333333E-1,
5.E-1,6.666666666667E-1,8.333333333333E-1,1.E0),.UNSPECIFIED.);
#107=B_SPLINE_CURVE_WITH_KNOTS('',3,(#97,#98,#99,#100,#101,#102,#103,#104,#105,
#106),.UNSPECIFIED.,.F.,.F.,(4,1,1,1,1,1,1,4),(0.E0,1.428571428571E-1,
2.857142857143E-1,4.285714285714E-1,5.714285714286E-1,7.142857142857E-1,
8.571428571429E-1,1.E0),.UNSPECIFIED.);
#120=CIRCLE('',#119,1.075E2);
#139=B_SPLINE_CURVE_WITH_KNOTS('',3,(#129,#130,#131,#132,#133,#134,#135,#136,
#137,#138),.UNSPECIFIED.,.F.,.F.,(4,1,1,1,1,1,1,4),(0.E0,1.428571428571E-1,
2.857142857143E-1,4.285714285714E-1,5.714285714286E-1,7.142857142857E-1,
8.571428571429E-1,1.E0),.UNSPECIFIED.);
#149=B_SPLINE_CURVE_WITH_KNOTS('',3,(#140,#141,#142,#143,#144,#145,#146,#147,
#148),.UNSPECIFIED.,.F.,.F.,(4,1,1,1,1,1,4),(0.E0,1.666666666667E-1,
3.333333333333E-1,5.E-1,6.666666666667E-1,8.333333333333E-1,1.E0),
.UNSPECIFIED.);
#154=CIRCLE('',#153,1.05115E2);
#159=CIRCLE('',#158,1.05715E2);
#168=CIRCLE('',#167,1.05715E2);
#177=CIRCLE('',#176,1.070632357189E2);
#182=CIRCLE('',#181,1.070632357189E2);
#187=CIRCLE('',#186,1.075E2);
#196=CIRCLE('',#195,1.075E2);
#209=CIRCLE('',#208,1.070632357189E2);
#218=CIRCLE('',#217,1.070632357189E2);
#223=CIRCLE('',#222,1.05715E2);
#228=CIRCLE('',#227,1.05715E2);
#274=EDGE_CURVE('',#231,#232,#9,.T.);
#276=EDGE_CURVE('',#232,#248,#223,.T.);
#278=EDGE_CURVE('',#247,#248,#18,.T.);
#280=EDGE_CURVE('',#231,#247,#5,.T.);
#291=EDGE_CURVE('',#231,#247,#14,.T.);
#294=EDGE_CURVE('',#232,#248,#228,.T.);
#304=EDGE_CURVE('',#265,#268,#28,.T.);
#306=EDGE_CURVE('',#265,#247,#32,.T.);
#309=EDGE_CURVE('',#244,#231,#36,.T.);
#311=EDGE_CURVE('',#244,#260,#41,.T.);
#313=EDGE_CURVE('',#260,#266,#45,.T.);
#315=EDGE_CURVE('',#268,#266,#56,.T.);
#325=EDGE_CURVE('',#261,#262,#71,.T.);
#327=EDGE_CURVE('',#262,#264,#128,.T.);
#329=EDGE_CURVE('',#264,#265,#139,.T.);
#332=EDGE_CURVE('',#267,#268,#60,.T.);
#334=EDGE_CURVE('',#267,#261,#96,.T.);
#345=EDGE_CURVE('',#252,#261,#124,.T.);
#347=EDGE_CURVE('',#236,#252,#76,.T.);
#349=EDGE_CURVE('',#236,#238,#115,.T.);
#351=EDGE_CURVE('',#238,#255,#187,.T.);
#353=EDGE_CURVE('',#263,#255,#111,.T.);
#355=EDGE_CURVE('',#262,#263,#86,.T.);
#366=EDGE_CURVE('',#263,#267,#107,.T.);
#369=EDGE_CURVE('',#238,#255,#196,.T.);
#372=EDGE_CURVE('',#236,#252,#120,.T.);
#387=EDGE_CURVE('',#266,#264,#149,.T.);
#401=EDGE_CURVE('',#244,#260,#154,.T.);
#414=EDGE_CURVE('',#243,#244,#163,.T.);
#417=EDGE_CURVE('',#259,#260,#172,.T.);
#419=EDGE_CURVE('',#243,#259,#159,.T.);
#430=EDGE_CURVE('',#243,#259,#168,.T.);
#442=EDGE_CURVE('',#240,#256,#177,.T.);
#444=EDGE_CURVE('',#240,#256,#182,.T.);
#458=EDGE_CURVE('',#238,#240,#191,.T.);
#461=EDGE_CURVE('',#255,#256,#200,.T.);
#484=EDGE_CURVE('',#235,#236,#204,.T.);
#486=EDGE_CURVE('',#235,#251,#209,.T.);
#488=EDGE_CURVE('',#251,#252,#213,.T.);
#502=EDGE_CURVE('',#235,#251,#218,.T.);
#523=(LENGTH_UNIT()NAMED_UNIT(*)SI_UNIT(.MILLI.,.METRE.));
#525=(NAMED_UNIT(*)PLANE_ANGLE_UNIT()SI_UNIT($,.RADIAN.));
#528=(NAMED_UNIT(*)SI_UNIT($,.STERADIAN.)SOLID_ANGLE_UNIT());
#531=ADVANCED_BREP_SHAPE_REPRESENTATION('',(#522),#530);
#538=PRODUCT_DEFINITION('design','',#537,#534);
#539=PRODUCT_DEFINITION_SHAPE('','SHAPE FOR PG__A_2016_10_21.',#538);
#540=SHAPE_DEFINITION_REPRESENTATION(#539,#531);
ENDSEC;
END-ISO-10303-21;
