ISO-10303-21;
HEADER;
FILE_DESCRIPTION((''),'2;1');
FILE_NAME('PG__A_2016_10_21','2016-08-08T',('deusss58'),(''),
'PRO/ENGINEER BY PARAMETRIC TECHNOLOGY CORPORATION, 2014430',
'PRO/ENGINEER BY PARAMETRIC TECHNOLOGY CORPORATION, 2014430','');
FILE_SCHEMA(('CONFIG_CONTROL_DESIGN'));
ENDSEC;
DATA;
#1=CARTESIAN_POINT('',(0.E0,0.E0,4.94E1));
#2=DIRECTION('',(0.E0,0.E0,-1.E0));
#3=DIRECTION('',(0.E0,-1.E0,0.E0));
#4=AXIS2_PLACEMENT_3D('',#1,#2,#3);
#6=DIRECTION('',(0.E0,-7.071067811866E-1,7.071067811865E-1));
#7=VECTOR('',#6,8.485281374238E-1);
#8=CARTESIAN_POINT('',(0.E0,-4.5115E1,4.94E1));
#9=LINE('',#8,#7);
#10=CARTESIAN_POINT('',(0.E0,0.E0,4.94E1));
#11=DIRECTION('',(0.E0,0.E0,1.E0));
#12=DIRECTION('',(0.E0,-1.E0,0.E0));
#13=AXIS2_PLACEMENT_3D('',#10,#11,#12);
#15=DIRECTION('',(0.E0,7.071067811866E-1,7.071067811865E-1));
#16=VECTOR('',#15,8.485281374238E-1);
#17=CARTESIAN_POINT('',(-1.001754235119E-14,4.5115E1,4.94E1));
#18=LINE('',#17,#16);
#19=CARTESIAN_POINT('',(1.528495065925E-14,4.5115E1,3.E0));
#20=CARTESIAN_POINT('',(2.656883803895E-1,4.5115E1,3.E0));
#21=CARTESIAN_POINT('',(7.782492080649E-1,4.511044646141E1,2.932811960894E0));
#22=CARTESIAN_POINT('',(1.522848902560E0,4.509107634320E1,2.625431799176E0));
#23=CARTESIAN_POINT('',(2.145850526739E0,4.506507322614E1,2.144961594463E0));
#24=CARTESIAN_POINT('',(2.631476753253E0,4.503876813052E1,1.512830622695E0));
#25=CARTESIAN_POINT('',(2.932410669153E0,4.501972184078E1,7.764487486349E-1));
#26=CARTESIAN_POINT('',(2.999999999684E0,4.501514439620E1,2.649635339960E-1));
#27=CARTESIAN_POINT('',(2.999999999684E0,4.501514439620E1,-5.278121786375E-8));
#29=DIRECTION('',(0.E0,0.E0,1.E0));
#30=VECTOR('',#29,4.64E1);
#31=CARTESIAN_POINT('',(1.528495065925E-14,4.5115E1,3.E0));
#32=LINE('',#31,#30);
#33=DIRECTION('',(0.E0,0.E0,1.E0));
#34=VECTOR('',#33,9.88E1);
#35=CARTESIAN_POINT('',(0.E0,-4.5115E1,-4.94E1));
#36=LINE('',#35,#34);
#37=CARTESIAN_POINT('',(0.E0,0.E0,-4.94E1));
#38=DIRECTION('',(0.E0,0.E0,1.E0));
#39=DIRECTION('',(0.E0,-1.E0,0.E0));
#40=AXIS2_PLACEMENT_3D('',#37,#38,#39);
#42=DIRECTION('',(0.E0,0.E0,1.E0));
#43=VECTOR('',#42,4.64E1);
#44=CARTESIAN_POINT('',(-1.001754235119E-14,4.5115E1,-4.94E1));
#45=LINE('',#44,#43);
#46=CARTESIAN_POINT('',(2.999999999684E0,4.501514439620E1,-5.278121786375E-8));
#47=CARTESIAN_POINT('',(2.999999999684E0,4.501514439620E1,-2.261445211702E-1));
#48=CARTESIAN_POINT('',(2.950702641968E0,4.501847756953E1,-6.663810378224E-1));
#49=CARTESIAN_POINT('',(2.726555025867E0,4.503283085740E1,-1.310482098116E0));
#50=CARTESIAN_POINT('',(2.371559106734E0,4.505329386986E1,-1.878626859026E0));
#51=CARTESIAN_POINT('',(1.886419249042E0,4.507655720086E1,-2.364838774784E0));
#52=CARTESIAN_POINT('',(1.323372894497E0,4.509698919020E1,-2.720777210683E0));
#53=CARTESIAN_POINT('',(6.681366143079E-1,4.511169388258E1,-2.951069369899E0));
#54=CARTESIAN_POINT('',(2.266280009131E-1,4.5115E1,-3.E0));
#55=CARTESIAN_POINT('',(-2.159733851321E-14,4.5115E1,-3.E0));
#57=DIRECTION('',(-1.323194124651E-10,-1.E0,-2.208396874831E-8));
#58=VECTOR('',#57,2.390024098381E0);
#59=CARTESIAN_POINT('',(3.E0,4.740516849459E1,0.E0));
#60=LINE('',#59,#58);
#61=CARTESIAN_POINT('',(-6.544192611293E-14,4.75E1,3.E0));
#62=CARTESIAN_POINT('',(-2.264929480011E-1,4.75E1,3.E0));
#63=CARTESIAN_POINT('',(-6.677978979467E-1,4.749686405905E1,2.951135130190E0));
#64=CARTESIAN_POINT('',(-1.323041034044E0,4.748290320934E1,2.720939158184E0));
#65=CARTESIAN_POINT('',(-1.886118167140E0,4.746350092234E1,2.365078159124E0));
#66=CARTESIAN_POINT('',(-2.371338380493E0,4.744140724032E1,1.878911926072E0));
#67=CARTESIAN_POINT('',(-2.726423354083E0,4.742197121271E1,1.310759978564E0));
#68=CARTESIAN_POINT('',(-2.950650867667E0,4.740833690603E1,6.666497890099E-1));
#69=CARTESIAN_POINT('',(-3.E0,4.740516849459E1,2.262515317198E-1));
#70=CARTESIAN_POINT('',(-3.E0,4.740516849459E1,0.E0));
#72=CARTESIAN_POINT('',(0.E0,0.E0,4.88E1));
#73=DIRECTION('',(0.E0,0.E0,-1.E0));
#74=DIRECTION('',(0.E0,-1.E0,0.E0));
#75=AXIS2_PLACEMENT_3D('',#72,#73,#74);
#77=CARTESIAN_POINT('',(-3.E0,4.740516849459E1,0.E0));
#78=CARTESIAN_POINT('',(-3.E0,4.740516849459E1,-2.650304501934E-1));
#79=CARTESIAN_POINT('',(-2.932401976942E0,4.740951625042E1,-7.765978737680E-1));
#80=CARTESIAN_POINT('',(-2.631252702191E0,4.742761320286E1,-1.513164706E0));
#81=CARTESIAN_POINT('',(-2.145941086765E0,4.745257941730E1,-2.144892171647E0));
#82=CARTESIAN_POINT('',(-1.522348379767E0,4.747729443550E1,-2.625738289482E0));
#83=CARTESIAN_POINT('',(-7.782445432911E-1,4.749567277879E1,-2.932764123283E0));
#84=CARTESIAN_POINT('',(-2.656858665165E-1,4.75E1,-3.E0));
#85=CARTESIAN_POINT('',(-4.192808274578E-14,4.75E1,-3.E0));
#87=CARTESIAN_POINT('',(3.E0,4.740516849459E1,0.E0));
#88=CARTESIAN_POINT('',(3.E0,4.740516849459E1,2.649822547510E-1));
#89=CARTESIAN_POINT('',(2.932399307111E0,4.740951584518E1,7.764925041164E-1));
#90=CARTESIAN_POINT('',(2.631463133588E0,4.742760232507E1,1.512850058579E0));
#91=CARTESIAN_POINT('',(2.145842780584E0,4.745258271683E1,2.144968066585E0));
#92=CARTESIAN_POINT('',(1.522854013011E0,4.747727767201E1,2.625426029435E0));
#93=CARTESIAN_POINT('',(7.782809503599E-1,4.749567448724E1,2.932802852446E0));
#94=CARTESIAN_POINT('',(2.657048708116E-1,4.75E1,3.E0));
#95=CARTESIAN_POINT('',(-6.544192611293E-14,4.75E1,3.E0));
#97=CARTESIAN_POINT('',(-4.192808274578E-14,4.75E1,-3.E0));
#98=CARTESIAN_POINT('',(2.266416787224E-1,4.75E1,-3.E0));
#99=CARTESIAN_POINT('',(6.681640938189E-1,4.749685945939E1,-2.951062968834E0));
#100=CARTESIAN_POINT('',(1.323383058233E0,4.748289337906E1,-2.720770686502E0));
#101=CARTESIAN_POINT('',(1.886416806387E0,4.746348884781E1,-2.364839446257E0));
#102=CARTESIAN_POINT('',(2.371549066882E0,4.744139640695E1,-1.878638410309E0));
#103=CARTESIAN_POINT('',(2.726543940066E0,4.742196411636E1,-1.310502868015E0));
#104=CARTESIAN_POINT('',(2.950695413807E0,4.740833405855E1,-6.664148074228E-1));
#105=CARTESIAN_POINT('',(3.E0,4.740516849459E1,-2.261588040934E-1));
#106=CARTESIAN_POINT('',(3.E0,4.740516849459E1,0.E0));
#108=DIRECTION('',(0.E0,0.E0,-1.E0));
#109=VECTOR('',#108,4.58E1);
#110=CARTESIAN_POINT('',(-4.192808274578E-14,4.75E1,-3.E0));
#111=LINE('',#110,#109);
#112=DIRECTION('',(0.E0,0.E0,-1.E0));
#113=VECTOR('',#112,9.76E1);
#114=CARTESIAN_POINT('',(0.E0,-4.75E1,4.88E1));
#115=LINE('',#114,#113);
#116=CARTESIAN_POINT('',(0.E0,0.E0,4.88E1));
#117=DIRECTION('',(0.E0,0.E0,1.E0));
#118=DIRECTION('',(0.E0,-1.E0,0.E0));
#119=AXIS2_PLACEMENT_3D('',#116,#117,#118);
#121=DIRECTION('',(0.E0,0.E0,-1.E0));
#122=VECTOR('',#121,4.58E1);
#123=CARTESIAN_POINT('',(-1.054711873394E-14,4.75E1,4.88E1));
#124=LINE('',#123,#122);
#125=DIRECTION('',(1.947432326575E-11,-1.E0,1.963551376006E-8));
#126=VECTOR('',#125,2.390024098441E0);
#127=CARTESIAN_POINT('',(-3.E0,4.740516849459E1,0.E0));
#128=LINE('',#127,#126);
#129=CARTESIAN_POINT('',(-2.999999999953E0,4.501514439614E1,4.692935131673E-8));
#130=CARTESIAN_POINT('',(-2.999999999953E0,4.501514439614E1,2.262374105264E-1));
#131=CARTESIAN_POINT('',(-2.950658025987E0,4.501848057296E1,6.666164836606E-1));
#132=CARTESIAN_POINT('',(-2.726434074964E0,4.503283835336E1,1.310740076389E0));
#133=CARTESIAN_POINT('',(-2.371347458750E0,4.505330533024E1,1.878901661197E0));
#134=CARTESIAN_POINT('',(-1.886119080254E0,4.507656998040E1,2.365078721749E0));
#135=CARTESIAN_POINT('',(-1.323029117703E0,4.509699959230E1,2.720946521593E0));
#136=CARTESIAN_POINT('',(-6.677688749822E-1,4.511169874446E1,2.951141813681E0));
#137=CARTESIAN_POINT('',(-2.264786527653E-1,4.5115E1,3.E0));
#138=CARTESIAN_POINT('',(1.528495065925E-14,4.5115E1,3.E0));
#140=CARTESIAN_POINT('',(-2.159733851321E-14,4.5115E1,-3.E0));
#141=CARTESIAN_POINT('',(-2.656686986233E-1,4.5115E1,-3.E0));
#142=CARTESIAN_POINT('',(-7.782111437021E-1,4.511044468678E1,
-2.932773590106E0));
#143=CARTESIAN_POINT('',(-1.522341499626E0,4.509109405558E1,-2.625745092403E0));
#144=CARTESIAN_POINT('',(-2.145947668866E0,4.506506981035E1,-2.144886928264E0));
#145=CARTESIAN_POINT('',(-2.631265830357E0,4.503877961555E1,-1.513146251706E0));
#146=CARTESIAN_POINT('',(-2.932413283819E0,4.501972227161E1,
-7.765545258694E-1));
#147=CARTESIAN_POINT('',(-2.999999999953E0,4.501514439614E1,
-2.650118615361E-1));
#148=CARTESIAN_POINT('',(-2.999999999953E0,4.501514439614E1,4.692935131673E-8));
#150=CARTESIAN_POINT('',(0.E0,0.E0,-4.94E1));
#151=DIRECTION('',(0.E0,0.E0,-1.E0));
#152=DIRECTION('',(0.E0,-1.E0,0.E0));
#153=AXIS2_PLACEMENT_3D('',#150,#151,#152);
#155=CARTESIAN_POINT('',(0.E0,0.E0,-5.E1));
#156=DIRECTION('',(0.E0,0.E0,-1.E0));
#157=DIRECTION('',(0.E0,-1.E0,0.E0));
#158=AXIS2_PLACEMENT_3D('',#155,#156,#157);
#160=DIRECTION('',(0.E0,7.071067811865E-1,7.071067811865E-1));
#161=VECTOR('',#160,8.485281374238E-1);
#162=CARTESIAN_POINT('',(0.E0,-4.5715E1,-5.E1));
#163=LINE('',#162,#161);
#164=CARTESIAN_POINT('',(0.E0,0.E0,-5.E1));
#165=DIRECTION('',(0.E0,0.E0,1.E0));
#166=DIRECTION('',(0.E0,-1.E0,0.E0));
#167=AXIS2_PLACEMENT_3D('',#164,#165,#166);
#169=DIRECTION('',(0.E0,-7.071067811865E-1,7.071067811865E-1));
#170=VECTOR('',#169,8.485281374238E-1);
#171=CARTESIAN_POINT('',(0.E0,4.5715E1,-5.E1));
#172=LINE('',#171,#170);
#173=CARTESIAN_POINT('',(0.E0,0.E0,-5.E1));
#174=DIRECTION('',(0.E0,0.E0,-1.E0));
#175=DIRECTION('',(0.E0,-1.E0,0.E0));
#176=AXIS2_PLACEMENT_3D('',#173,#174,#175);
#178=CARTESIAN_POINT('',(0.E0,0.E0,-5.E1));
#179=DIRECTION('',(0.E0,0.E0,1.E0));
#180=DIRECTION('',(0.E0,-1.E0,0.E0));
#181=AXIS2_PLACEMENT_3D('',#178,#179,#180);
#183=CARTESIAN_POINT('',(0.E0,0.E0,-4.88E1));
#184=DIRECTION('',(0.E0,0.E0,-1.E0));
#185=DIRECTION('',(0.E0,-1.E0,0.E0));
#186=AXIS2_PLACEMENT_3D('',#183,#184,#185);
#188=DIRECTION('',(0.E0,3.420201433257E-1,-9.396926207859E-1));
#189=VECTOR('',#188,1.277013326971E0);
#190=CARTESIAN_POINT('',(0.E0,-4.75E1,-4.88E1));
#191=LINE('',#190,#189);
#192=CARTESIAN_POINT('',(0.E0,0.E0,-4.88E1));
#193=DIRECTION('',(0.E0,0.E0,1.E0));
#194=DIRECTION('',(0.E0,-1.E0,0.E0));
#195=AXIS2_PLACEMENT_3D('',#192,#193,#194);
#197=DIRECTION('',(0.E0,-3.420201433257E-1,-9.396926207859E-1));
#198=VECTOR('',#197,1.277013326971E0);
#199=CARTESIAN_POINT('',(-1.054711873394E-14,4.75E1,-4.88E1));
#200=LINE('',#199,#198);
#201=DIRECTION('',(0.E0,-3.420201433257E-1,-9.396926207859E-1));
#202=VECTOR('',#201,1.277013326971E0);
#203=CARTESIAN_POINT('',(0.E0,-4.706323571888E1,5.E1));
#204=LINE('',#203,#202);
#205=CARTESIAN_POINT('',(0.E0,0.E0,5.E1));
#206=DIRECTION('',(0.E0,0.E0,1.E0));
#207=DIRECTION('',(0.E0,-1.E0,0.E0));
#208=AXIS2_PLACEMENT_3D('',#205,#206,#207);
#210=DIRECTION('',(0.E0,3.420201433257E-1,-9.396926207859E-1));
#211=VECTOR('',#210,1.277013326971E0);
#212=CARTESIAN_POINT('',(0.E0,4.706323571888E1,5.E1));
#213=LINE('',#212,#211);
#214=CARTESIAN_POINT('',(0.E0,0.E0,5.E1));
#215=DIRECTION('',(0.E0,0.E0,-1.E0));
#216=DIRECTION('',(0.E0,-1.E0,0.E0));
#217=AXIS2_PLACEMENT_3D('',#214,#215,#216);
#219=CARTESIAN_POINT('',(0.E0,0.E0,5.E1));
#220=DIRECTION('',(0.E0,0.E0,-1.E0));
#221=DIRECTION('',(0.E0,-1.E0,0.E0));
#222=AXIS2_PLACEMENT_3D('',#219,#220,#221);
#224=CARTESIAN_POINT('',(0.E0,0.E0,5.E1));
#225=DIRECTION('',(0.E0,0.E0,1.E0));
#226=DIRECTION('',(0.E0,-1.E0,0.E0));
#227=AXIS2_PLACEMENT_3D('',#224,#225,#226);
#229=CARTESIAN_POINT('',(0.E0,-4.5115E1,4.94E1));
#230=CARTESIAN_POINT('',(0.E0,-4.5715E1,5.E1));
#231=VERTEX_POINT('',#229);
#232=VERTEX_POINT('',#230);
#233=CARTESIAN_POINT('',(0.E0,-4.706323571888E1,5.E1));
#234=CARTESIAN_POINT('',(0.E0,-4.75E1,4.88E1));
#235=VERTEX_POINT('',#233);
#236=VERTEX_POINT('',#234);
#237=CARTESIAN_POINT('',(0.E0,-4.75E1,-4.88E1));
#238=VERTEX_POINT('',#237);
#239=CARTESIAN_POINT('',(0.E0,-4.706323571888E1,-5.E1));
#240=VERTEX_POINT('',#239);
#241=CARTESIAN_POINT('',(0.E0,-4.5715E1,-5.E1));
#242=CARTESIAN_POINT('',(0.E0,-4.5115E1,-4.94E1));
#243=VERTEX_POINT('',#241);
#244=VERTEX_POINT('',#242);
#245=CARTESIAN_POINT('',(-1.001754235119E-14,4.5115E1,4.94E1));
#246=CARTESIAN_POINT('',(0.E0,4.5715E1,5.E1));
#247=VERTEX_POINT('',#245);
#248=VERTEX_POINT('',#246);
#249=CARTESIAN_POINT('',(0.E0,4.706323571888E1,5.E1));
#250=CARTESIAN_POINT('',(-1.054711873394E-14,4.75E1,4.88E1));
#251=VERTEX_POINT('',#249);
#252=VERTEX_POINT('',#250);
#253=CARTESIAN_POINT('',(-1.054711873394E-14,4.75E1,-4.88E1));
#254=CARTESIAN_POINT('',(0.E0,4.706323571888E1,-5.E1));
#255=VERTEX_POINT('',#253);
#256=VERTEX_POINT('',#254);
#257=CARTESIAN_POINT('',(0.E0,4.5715E1,-5.E1));
#258=CARTESIAN_POINT('',(-1.001754235119E-14,4.5115E1,-4.94E1));
#259=VERTEX_POINT('',#257);
#260=VERTEX_POINT('',#258);
#261=VERTEX_POINT('',#61);
#262=VERTEX_POINT('',#70);
#263=VERTEX_POINT('',#85);
#264=VERTEX_POINT('',#129);
#265=VERTEX_POINT('',#138);
#266=VERTEX_POINT('',#140);
#267=VERTEX_POINT('',#87);
#268=VERTEX_POINT('',#27);
#269=CARTESIAN_POINT('',(0.E0,0.E0,4.97E1));
#270=DIRECTION('',(0.E0,0.E0,1.E0));
#271=DIRECTION('',(0.E0,1.E0,0.E0));
#272=AXIS2_PLACEMENT_3D('',#269,#270,#271);
#273=CONICAL_SURFACE('',#272,4.5415E1,4.5E1);
#275=ORIENTED_EDGE('',*,*,#274,.T.);
#277=ORIENTED_EDGE('',*,*,#276,.T.);
#279=ORIENTED_EDGE('',*,*,#278,.F.);
#281=ORIENTED_EDGE('',*,*,#280,.F.);
#282=EDGE_LOOP('',(#275,#277,#279,#281));
#283=FACE_OUTER_BOUND('',#282,.F.);
#284=ADVANCED_FACE('',(#283),#273,.F.);
#285=CARTESIAN_POINT('',(0.E0,0.E0,4.97E1));
#286=DIRECTION('',(0.E0,0.E0,1.E0));
#287=DIRECTION('',(0.E0,1.E0,0.E0));
#288=AXIS2_PLACEMENT_3D('',#285,#286,#287);
#289=CONICAL_SURFACE('',#288,4.5415E1,4.5E1);
#290=ORIENTED_EDGE('',*,*,#274,.F.);
#292=ORIENTED_EDGE('',*,*,#291,.T.);
#293=ORIENTED_EDGE('',*,*,#278,.T.);
#295=ORIENTED_EDGE('',*,*,#294,.F.);
#296=EDGE_LOOP('',(#290,#292,#293,#295));
#297=FACE_OUTER_BOUND('',#296,.F.);
#298=ADVANCED_FACE('',(#297),#289,.F.);
#299=CARTESIAN_POINT('',(0.E0,0.E0,5.5E1));
#300=DIRECTION('',(0.E0,0.E0,-1.E0));
#301=DIRECTION('',(0.E0,-1.E0,0.E0));
#302=AXIS2_PLACEMENT_3D('',#299,#300,#301);
#303=CYLINDRICAL_SURFACE('',#302,4.5115E1);
#305=ORIENTED_EDGE('',*,*,#304,.F.);
#307=ORIENTED_EDGE('',*,*,#306,.T.);
#308=ORIENTED_EDGE('',*,*,#291,.F.);
#310=ORIENTED_EDGE('',*,*,#309,.F.);
#312=ORIENTED_EDGE('',*,*,#311,.T.);
#314=ORIENTED_EDGE('',*,*,#313,.T.);
#316=ORIENTED_EDGE('',*,*,#315,.F.);
#317=EDGE_LOOP('',(#305,#307,#308,#310,#312,#314,#316));
#318=FACE_OUTER_BOUND('',#317,.F.);
#319=ADVANCED_FACE('',(#318),#303,.F.);
#320=CARTESIAN_POINT('',(0.E0,4.75E1,0.E0));
#321=DIRECTION('',(0.E0,-1.E0,0.E0));
#322=DIRECTION('',(1.E0,0.E0,0.E0));
#323=AXIS2_PLACEMENT_3D('',#320,#321,#322);
#324=CYLINDRICAL_SURFACE('',#323,3.E0);
#326=ORIENTED_EDGE('',*,*,#325,.T.);
#328=ORIENTED_EDGE('',*,*,#327,.T.);
#330=ORIENTED_EDGE('',*,*,#329,.T.);
#331=ORIENTED_EDGE('',*,*,#304,.T.);
#333=ORIENTED_EDGE('',*,*,#332,.F.);
#335=ORIENTED_EDGE('',*,*,#334,.T.);
#336=EDGE_LOOP('',(#326,#328,#330,#331,#333,#335));
#337=FACE_OUTER_BOUND('',#336,.F.);
#338=ADVANCED_FACE('',(#337),#324,.F.);
#339=CARTESIAN_POINT('',(0.E0,0.E0,5.5E1));
#340=DIRECTION('',(0.E0,0.E0,-1.E0));
#341=DIRECTION('',(0.E0,-1.E0,0.E0));
#342=AXIS2_PLACEMENT_3D('',#339,#340,#341);
#343=CYLINDRICAL_SURFACE('',#342,4.75E1);
#344=ORIENTED_EDGE('',*,*,#325,.F.);
#346=ORIENTED_EDGE('',*,*,#345,.F.);
#348=ORIENTED_EDGE('',*,*,#347,.F.);
#350=ORIENTED_EDGE('',*,*,#349,.T.);
#352=ORIENTED_EDGE('',*,*,#351,.T.);
#354=ORIENTED_EDGE('',*,*,#353,.F.);
#356=ORIENTED_EDGE('',*,*,#355,.F.);
#357=EDGE_LOOP('',(#344,#346,#348,#350,#352,#354,#356));
#358=FACE_OUTER_BOUND('',#357,.F.);
#359=ADVANCED_FACE('',(#358),#343,.T.);
#360=CARTESIAN_POINT('',(0.E0,0.E0,5.5E1));
#361=DIRECTION('',(0.E0,0.E0,-1.E0));
#362=DIRECTION('',(0.E0,-1.E0,0.E0));
#363=AXIS2_PLACEMENT_3D('',#360,#361,#362);
#364=CYLINDRICAL_SURFACE('',#363,4.75E1);
#365=ORIENTED_EDGE('',*,*,#334,.F.);
#367=ORIENTED_EDGE('',*,*,#366,.F.);
#368=ORIENTED_EDGE('',*,*,#353,.T.);
#370=ORIENTED_EDGE('',*,*,#369,.F.);
#371=ORIENTED_EDGE('',*,*,#349,.F.);
#373=ORIENTED_EDGE('',*,*,#372,.T.);
#374=ORIENTED_EDGE('',*,*,#345,.T.);
#375=EDGE_LOOP('',(#365,#367,#368,#370,#371,#373,#374));
#376=FACE_OUTER_BOUND('',#375,.F.);
#377=ADVANCED_FACE('',(#376),#364,.T.);
#378=CARTESIAN_POINT('',(0.E0,4.75E1,0.E0));
#379=DIRECTION('',(0.E0,-1.E0,0.E0));
#380=DIRECTION('',(1.E0,0.E0,0.E0));
#381=AXIS2_PLACEMENT_3D('',#378,#379,#380);
#382=CYLINDRICAL_SURFACE('',#381,3.E0);
#383=ORIENTED_EDGE('',*,*,#355,.T.);
#384=ORIENTED_EDGE('',*,*,#366,.T.);
#385=ORIENTED_EDGE('',*,*,#332,.T.);
#386=ORIENTED_EDGE('',*,*,#315,.T.);
#388=ORIENTED_EDGE('',*,*,#387,.T.);
#389=ORIENTED_EDGE('',*,*,#327,.F.);
#390=EDGE_LOOP('',(#383,#384,#385,#386,#388,#389));
#391=FACE_OUTER_BOUND('',#390,.F.);
#392=ADVANCED_FACE('',(#391),#382,.F.);
#393=CARTESIAN_POINT('',(0.E0,0.E0,5.5E1));
#394=DIRECTION('',(0.E0,0.E0,-1.E0));
#395=DIRECTION('',(0.E0,-1.E0,0.E0));
#396=AXIS2_PLACEMENT_3D('',#393,#394,#395);
#397=CYLINDRICAL_SURFACE('',#396,4.5115E1);
#398=ORIENTED_EDGE('',*,*,#329,.F.);
#399=ORIENTED_EDGE('',*,*,#387,.F.);
#400=ORIENTED_EDGE('',*,*,#313,.F.);
#402=ORIENTED_EDGE('',*,*,#401,.F.);
#403=ORIENTED_EDGE('',*,*,#309,.T.);
#404=ORIENTED_EDGE('',*,*,#280,.T.);
#405=ORIENTED_EDGE('',*,*,#306,.F.);
#406=EDGE_LOOP('',(#398,#399,#400,#402,#403,#404,#405));
#407=FACE_OUTER_BOUND('',#406,.F.);
#408=ADVANCED_FACE('',(#407),#397,.F.);
#409=CARTESIAN_POINT('',(0.E0,0.E0,-4.97E1));
#410=DIRECTION('',(0.E0,0.E0,-1.E0));
#411=DIRECTION('',(0.E0,-1.E0,0.E0));
#412=AXIS2_PLACEMENT_3D('',#409,#410,#411);
#413=CONICAL_SURFACE('',#412,4.5415E1,4.5E1);
#415=ORIENTED_EDGE('',*,*,#414,.T.);
#416=ORIENTED_EDGE('',*,*,#401,.T.);
#418=ORIENTED_EDGE('',*,*,#417,.F.);
#420=ORIENTED_EDGE('',*,*,#419,.F.);
#421=EDGE_LOOP('',(#415,#416,#418,#420));
#422=FACE_OUTER_BOUND('',#421,.F.);
#423=ADVANCED_FACE('',(#422),#413,.F.);
#424=CARTESIAN_POINT('',(0.E0,0.E0,-4.97E1));
#425=DIRECTION('',(0.E0,0.E0,-1.E0));
#426=DIRECTION('',(0.E0,-1.E0,0.E0));
#427=AXIS2_PLACEMENT_3D('',#424,#425,#426);
#428=CONICAL_SURFACE('',#427,4.5415E1,4.5E1);
#429=ORIENTED_EDGE('',*,*,#414,.F.);
#431=ORIENTED_EDGE('',*,*,#430,.T.);
#432=ORIENTED_EDGE('',*,*,#417,.T.);
#433=ORIENTED_EDGE('',*,*,#311,.F.);
#434=EDGE_LOOP('',(#429,#431,#432,#433));
#435=FACE_OUTER_BOUND('',#434,.F.);
#436=ADVANCED_FACE('',(#435),#428,.F.);
#437=CARTESIAN_POINT('',(0.E0,0.E0,-5.E1));
#438=DIRECTION('',(0.E0,0.E0,-1.E0));
#439=DIRECTION('',(0.E0,-1.E0,0.E0));
#440=AXIS2_PLACEMENT_3D('',#437,#438,#439);
#441=PLANE('',#440);
#443=ORIENTED_EDGE('',*,*,#442,.F.);
#445=ORIENTED_EDGE('',*,*,#444,.T.);
#446=EDGE_LOOP('',(#443,#445));
#447=FACE_OUTER_BOUND('',#446,.F.);
#448=ORIENTED_EDGE('',*,*,#430,.F.);
#449=ORIENTED_EDGE('',*,*,#419,.T.);
#450=EDGE_LOOP('',(#448,#449));
#451=FACE_BOUND('',#450,.F.);
#452=ADVANCED_FACE('',(#447,#451),#441,.T.);
#453=CARTESIAN_POINT('',(0.E0,0.E0,-4.94E1));
#454=DIRECTION('',(0.E0,0.E0,1.E0));
#455=DIRECTION('',(0.E0,1.E0,0.E0));
#456=AXIS2_PLACEMENT_3D('',#453,#454,#455);
#457=CONICAL_SURFACE('',#456,4.728161785944E1,2.E1);
#459=ORIENTED_EDGE('',*,*,#458,.T.);
#460=ORIENTED_EDGE('',*,*,#442,.T.);
#462=ORIENTED_EDGE('',*,*,#461,.F.);
#463=ORIENTED_EDGE('',*,*,#351,.F.);
#464=EDGE_LOOP('',(#459,#460,#462,#463));
#465=FACE_OUTER_BOUND('',#464,.F.);
#466=ADVANCED_FACE('',(#465),#457,.T.);
#467=CARTESIAN_POINT('',(0.E0,0.E0,-4.94E1));
#468=DIRECTION('',(0.E0,0.E0,1.E0));
#469=DIRECTION('',(0.E0,1.E0,0.E0));
#470=AXIS2_PLACEMENT_3D('',#467,#468,#469);
#471=CONICAL_SURFACE('',#470,4.728161785944E1,2.E1);
#472=ORIENTED_EDGE('',*,*,#458,.F.);
#473=ORIENTED_EDGE('',*,*,#369,.T.);
#474=ORIENTED_EDGE('',*,*,#461,.T.);
#475=ORIENTED_EDGE('',*,*,#444,.F.);
#476=EDGE_LOOP('',(#472,#473,#474,#475));
#477=FACE_OUTER_BOUND('',#476,.F.);
#478=ADVANCED_FACE('',(#477),#471,.T.);
#479=CARTESIAN_POINT('',(0.E0,0.E0,4.94E1));
#480=DIRECTION('',(0.E0,0.E0,-1.E0));
#481=DIRECTION('',(0.E0,-1.E0,0.E0));
#482=AXIS2_PLACEMENT_3D('',#479,#480,#481);
#483=CONICAL_SURFACE('',#482,4.728161785944E1,2.E1);
#485=ORIENTED_EDGE('',*,*,#484,.F.);
#487=ORIENTED_EDGE('',*,*,#486,.T.);
#489=ORIENTED_EDGE('',*,*,#488,.T.);
#490=ORIENTED_EDGE('',*,*,#372,.F.);
#491=EDGE_LOOP('',(#485,#487,#489,#490));
#492=FACE_OUTER_BOUND('',#491,.F.);
#493=ADVANCED_FACE('',(#492),#483,.T.);
#494=CARTESIAN_POINT('',(0.E0,0.E0,4.94E1));
#495=DIRECTION('',(0.E0,0.E0,-1.E0));
#496=DIRECTION('',(0.E0,-1.E0,0.E0));
#497=AXIS2_PLACEMENT_3D('',#494,#495,#496);
#498=CONICAL_SURFACE('',#497,4.728161785944E1,2.E1);
#499=ORIENTED_EDGE('',*,*,#484,.T.);
#500=ORIENTED_EDGE('',*,*,#347,.T.);
#501=ORIENTED_EDGE('',*,*,#488,.F.);
#503=ORIENTED_EDGE('',*,*,#502,.F.);
#504=EDGE_LOOP('',(#499,#500,#501,#503));
#505=FACE_OUTER_BOUND('',#504,.F.);
#506=ADVANCED_FACE('',(#505),#498,.T.);
#507=CARTESIAN_POINT('',(0.E0,0.E0,5.E1));
#508=DIRECTION('',(0.E0,0.E0,-1.E0));
#509=DIRECTION('',(0.E0,-1.E0,0.E0));
#510=AXIS2_PLACEMENT_3D('',#507,#508,#509);
#511=PLANE('',#510);
#512=ORIENTED_EDGE('',*,*,#486,.F.);
#513=ORIENTED_EDGE('',*,*,#502,.T.);
#514=EDGE_LOOP('',(#512,#513));
#515=FACE_OUTER_BOUND('',#514,.F.);
#516=ORIENTED_EDGE('',*,*,#276,.F.);
#517=ORIENTED_EDGE('',*,*,#294,.T.);
#518=EDGE_LOOP('',(#516,#517));
#519=FACE_BOUND('',#518,.F.);
#520=ADVANCED_FACE('',(#515,#519),#511,.F.);
#521=CLOSED_SHELL('',(#284,#298,#319,#338,#359,#377,#392,#408,#423,#436,#452,
#466,#478,#493,#506,#520));
#522=MANIFOLD_SOLID_BREP('',#521);
#524=DIMENSIONAL_EXPONENTS(0.E0,0.E0,0.E0,0.E0,0.E0,0.E0,0.E0);
#526=PLANE_ANGLE_MEASURE_WITH_UNIT(PLANE_ANGLE_MEASURE(1.745329251994E-2),#525);
#527=(CONVERSION_BASED_UNIT('DEGREE',#526)NAMED_UNIT(*)PLANE_ANGLE_UNIT());
#529=UNCERTAINTY_MEASURE_WITH_UNIT(LENGTH_MEASURE(1.674746429908E-2),#523,
'closure',
'Maximum model space distance between geometric entities at asserted connectivities');
#530=(GEOMETRIC_REPRESENTATION_CONTEXT(3)GLOBAL_UNCERTAINTY_ASSIGNED_CONTEXT((
#529))GLOBAL_UNIT_ASSIGNED_CONTEXT((#523,#527,#528))REPRESENTATION_CONTEXT
('ID1','3'));
#532=APPLICATION_CONTEXT(
'CONFIGURATION CONTROLLED 3D DESIGNS OF MECHANICAL PARTS AND ASSEMBLIES');
#533=APPLICATION_PROTOCOL_DEFINITION('international standard',
'config_control_design',1994,#532);
#534=DESIGN_CONTEXT('',#532,'design');
#535=MECHANICAL_CONTEXT('',#532,'mechanical');
#536=PRODUCT('PG__A_2016_10_21','PG__A_2016_10_21','NOT SPECIFIED',(#535));
#537=PRODUCT_DEFINITION_FORMATION_WITH_SPECIFIED_SOURCE('1','LAST_VERSION',#536,
.MADE.);
#541=PRODUCT_CATEGORY('part','');
#542=PRODUCT_RELATED_PRODUCT_CATEGORY('detail','',(#536));
#543=PRODUCT_CATEGORY_RELATIONSHIP('','',#541,#542);
#544=SECURITY_CLASSIFICATION_LEVEL('unclassified');
#545=SECURITY_CLASSIFICATION('','',#544);
#546=CC_DESIGN_SECURITY_CLASSIFICATION(#545,(#537));
#547=APPROVAL_STATUS('approved');
#548=APPROVAL(#547,'');
#549=CC_DESIGN_APPROVAL(#548,(#545,#537,#538));
#550=CALENDAR_DATE(116,8,8);
#551=COORDINATED_UNIVERSAL_TIME_OFFSET(2,0,.AHEAD.);
#552=LOCAL_TIME(9,53,6.E0,#551);
#553=DATE_AND_TIME(#550,#552);
#554=APPROVAL_DATE_TIME(#553,#548);
#555=DATE_TIME_ROLE('creation_date');
#556=CC_DESIGN_DATE_AND_TIME_ASSIGNMENT(#553,#555,(#538));
#557=DATE_TIME_ROLE('classification_date');
#558=CC_DESIGN_DATE_AND_TIME_ASSIGNMENT(#553,#557,(#545));
#559=PERSON('UNSPECIFIED','UNSPECIFIED',$,$,$,$);
#560=ORGANIZATION('UNSPECIFIED','UNSPECIFIED','UNSPECIFIED');
#561=PERSON_AND_ORGANIZATION(#559,#560);
#562=APPROVAL_ROLE('approver');
#563=APPROVAL_PERSON_ORGANIZATION(#561,#548,#562);
#564=PERSON_AND_ORGANIZATION_ROLE('creator');
#565=CC_DESIGN_PERSON_AND_ORGANIZATION_ASSIGNMENT(#561,#564,(#537,#538));
#566=PERSON_AND_ORGANIZATION_ROLE('design_supplier');
#567=CC_DESIGN_PERSON_AND_ORGANIZATION_ASSIGNMENT(#561,#566,(#537));
#568=PERSON_AND_ORGANIZATION_ROLE('classification_officer');
#569=CC_DESIGN_PERSON_AND_ORGANIZATION_ASSIGNMENT(#561,#568,(#545));
#570=PERSON_AND_ORGANIZATION_ROLE('design_owner');
#571=CC_DESIGN_PERSON_AND_ORGANIZATION_ASSIGNMENT(#561,#570,(#536));
#5=CIRCLE('',#4,4.5115E1);
#14=CIRCLE('',#13,4.5115E1);
#28=B_SPLINE_CURVE_WITH_KNOTS('',3,(#19,#20,#21,#22,#23,#24,#25,#26,#27),
.UNSPECIFIED.,.F.,.F.,(4,1,1,1,1,1,4),(0.E0,1.666666666667E-1,3.333333333333E-1,
5.E-1,6.666666666667E-1,8.333333333333E-1,1.E0),.UNSPECIFIED.);
#41=CIRCLE('',#40,4.5115E1);
#56=B_SPLINE_CURVE_WITH_KNOTS('',3,(#46,#47,#48,#49,#50,#51,#52,#53,#54,#55),
.UNSPECIFIED.,.F.,.F.,(4,1,1,1,1,1,1,4),(0.E0,1.428571428571E-1,
2.857142857143E-1,4.285714285714E-1,5.714285714286E-1,7.142857142857E-1,
8.571428571429E-1,1.E0),.UNSPECIFIED.);
#71=B_SPLINE_CURVE_WITH_KNOTS('',3,(#61,#62,#63,#64,#65,#66,#67,#68,#69,#70),
.UNSPECIFIED.,.F.,.F.,(4,1,1,1,1,1,1,4),(0.E0,1.428571428571E-1,
2.857142857143E-1,4.285714285714E-1,5.714285714286E-1,7.142857142857E-1,
8.571428571429E-1,1.E0),.UNSPECIFIED.);
#76=CIRCLE('',#75,4.75E1);
#86=B_SPLINE_CURVE_WITH_KNOTS('',3,(#77,#78,#79,#80,#81,#82,#83,#84,#85),
.UNSPECIFIED.,.F.,.F.,(4,1,1,1,1,1,4),(0.E0,1.666666666667E-1,3.333333333333E-1,
5.E-1,6.666666666667E-1,8.333333333333E-1,1.E0),.UNSPECIFIED.);
#96=B_SPLINE_CURVE_WITH_KNOTS('',3,(#87,#88,#89,#90,#91,#92,#93,#94,#95),
.UNSPECIFIED.,.F.,.F.,(4,1,1,1,1,1,4),(0.E0,1.666666666667E-1,3.333333333333E-1,
5.E-1,6.666666666667E-1,8.333333333333E-1,1.E0),.UNSPECIFIED.);
#107=B_SPLINE_CURVE_WITH_KNOTS('',3,(#97,#98,#99,#100,#101,#102,#103,#104,#105,
#106),.UNSPECIFIED.,.F.,.F.,(4,1,1,1,1,1,1,4),(0.E0,1.428571428571E-1,
2.857142857143E-1,4.285714285714E-1,5.714285714286E-1,7.142857142857E-1,
8.571428571429E-1,1.E0),.UNSPECIFIED.);
#120=CIRCLE('',#119,4.75E1);
#139=B_SPLINE_CURVE_WITH_KNOTS('',3,(#129,#130,#131,#132,#133,#134,#135,#136,
#137,#138),.UNSPECIFIED.,.F.,.F.,(4,1,1,1,1,1,1,4),(0.E0,1.428571428571E-1,
2.857142857143E-1,4.285714285714E-1,5.714285714286E-1,7.142857142857E-1,
8.571428571429E-1,1.E0),.UNSPECIFIED.);
#149=B_SPLINE_CURVE_WITH_KNOTS('',3,(#140,#141,#142,#143,#144,#145,#146,#147,
#148),.UNSPECIFIED.,.F.,.F.,(4,1,1,1,1,1,4),(0.E0,1.666666666667E-1,
3.333333333333E-1,5.E-1,6.666666666667E-1,8.333333333333E-1,1.E0),
.UNSPECIFIED.);
#154=CIRCLE('',#153,4.5115E1);
#159=CIRCLE('',#158,4.5715E1);
#168=CIRCLE('',#167,4.5715E1);
#177=CIRCLE('',#176,4.706323571888E1);
#182=CIRCLE('',#181,4.706323571888E1);
#187=CIRCLE('',#186,4.75E1);
#196=CIRCLE('',#195,4.75E1);
#209=CIRCLE('',#208,4.706323571888E1);
#218=CIRCLE('',#217,4.706323571888E1);
#223=CIRCLE('',#222,4.5715E1);
#228=CIRCLE('',#227,4.5715E1);
#274=EDGE_CURVE('',#231,#232,#9,.T.);
#276=EDGE_CURVE('',#232,#248,#223,.T.);
#278=EDGE_CURVE('',#247,#248,#18,.T.);
#280=EDGE_CURVE('',#231,#247,#5,.T.);
#291=EDGE_CURVE('',#231,#247,#14,.T.);
#294=EDGE_CURVE('',#232,#248,#228,.T.);
#304=EDGE_CURVE('',#265,#268,#28,.T.);
#306=EDGE_CURVE('',#265,#247,#32,.T.);
#309=EDGE_CURVE('',#244,#231,#36,.T.);
#311=EDGE_CURVE('',#244,#260,#41,.T.);
#313=EDGE_CURVE('',#260,#266,#45,.T.);
#315=EDGE_CURVE('',#268,#266,#56,.T.);
#325=EDGE_CURVE('',#261,#262,#71,.T.);
#327=EDGE_CURVE('',#262,#264,#128,.T.);
#329=EDGE_CURVE('',#264,#265,#139,.T.);
#332=EDGE_CURVE('',#267,#268,#60,.T.);
#334=EDGE_CURVE('',#267,#261,#96,.T.);
#345=EDGE_CURVE('',#252,#261,#124,.T.);
#347=EDGE_CURVE('',#236,#252,#76,.T.);
#349=EDGE_CURVE('',#236,#238,#115,.T.);
#351=EDGE_CURVE('',#238,#255,#187,.T.);
#353=EDGE_CURVE('',#263,#255,#111,.T.);
#355=EDGE_CURVE('',#262,#263,#86,.T.);
#366=EDGE_CURVE('',#263,#267,#107,.T.);
#369=EDGE_CURVE('',#238,#255,#196,.T.);
#372=EDGE_CURVE('',#236,#252,#120,.T.);
#387=EDGE_CURVE('',#266,#264,#149,.T.);
#401=EDGE_CURVE('',#244,#260,#154,.T.);
#414=EDGE_CURVE('',#243,#244,#163,.T.);
#417=EDGE_CURVE('',#259,#260,#172,.T.);
#419=EDGE_CURVE('',#243,#259,#159,.T.);
#430=EDGE_CURVE('',#243,#259,#168,.T.);
#442=EDGE_CURVE('',#240,#256,#177,.T.);
#444=EDGE_CURVE('',#240,#256,#182,.T.);
#458=EDGE_CURVE('',#238,#240,#191,.T.);
#461=EDGE_CURVE('',#255,#256,#200,.T.);
#484=EDGE_CURVE('',#235,#236,#204,.T.);
#486=EDGE_CURVE('',#235,#251,#209,.T.);
#488=EDGE_CURVE('',#251,#252,#213,.T.);
#502=EDGE_CURVE('',#235,#251,#218,.T.);
#523=(LENGTH_UNIT()NAMED_UNIT(*)SI_UNIT(.MILLI.,.METRE.));
#525=(NAMED_UNIT(*)PLANE_ANGLE_UNIT()SI_UNIT($,.RADIAN.));
#528=(NAMED_UNIT(*)SI_UNIT($,.STERADIAN.)SOLID_ANGLE_UNIT());
#531=ADVANCED_BREP_SHAPE_REPRESENTATION('',(#522),#530);
#538=PRODUCT_DEFINITION('design','',#537,#534);
#539=PRODUCT_DEFINITION_SHAPE('','SHAPE FOR PG__A_2016_10_21.',#538);
#540=SHAPE_DEFINITION_REPRESENTATION(#539,#531);
ENDSEC;
END-ISO-10303-21;
