ISO-10303-21;
HEADER;
FILE_DESCRIPTION((''),'2;1');
FILE_NAME('PG__A_2016_10_21','2016-08-08T',('deusss58'),(''),
'PRO/ENGINEER BY PARAMETRIC TECHNOLOGY CORPORATION, 2014430',
'PRO/ENGINEER BY PARAMETRIC TECHNOLOGY CORPORATION, 2014430','');
FILE_SCHEMA(('CONFIG_CONTROL_DESIGN'));
ENDSEC;
DATA;
#1=CARTESIAN_POINT('',(0.E0,0.E0,2.94E1));
#2=DIRECTION('',(0.E0,0.E0,-1.E0));
#3=DIRECTION('',(0.E0,-1.E0,0.E0));
#4=AXIS2_PLACEMENT_3D('',#1,#2,#3);
#6=DIRECTION('',(0.E0,-7.071067811865E-1,7.071067811866E-1));
#7=VECTOR('',#6,8.485281374238E-1);
#8=CARTESIAN_POINT('',(0.E0,-4.5115E1,2.94E1));
#9=LINE('',#8,#7);
#10=CARTESIAN_POINT('',(0.E0,0.E0,2.94E1));
#11=DIRECTION('',(0.E0,0.E0,1.E0));
#12=DIRECTION('',(0.E0,-1.E0,0.E0));
#13=AXIS2_PLACEMENT_3D('',#10,#11,#12);
#15=DIRECTION('',(0.E0,7.071067811865E-1,7.071067811866E-1));
#16=VECTOR('',#15,8.485281374238E-1);
#17=CARTESIAN_POINT('',(-1.001754235119E-14,4.5115E1,2.94E1));
#18=LINE('',#17,#16);
#19=CARTESIAN_POINT('',(0.E0,4.5115E1,3.E0));
#20=CARTESIAN_POINT('',(2.266186688608E-1,4.5115E1,3.E0));
#21=CARTESIAN_POINT('',(6.678998448410E-1,4.511168440739E1,2.950910942165E0));
#22=CARTESIAN_POINT('',(1.319661578746E0,4.509708964735E1,2.722369530175E0));
#23=CARTESIAN_POINT('',(1.883628473139E0,4.507668265642E1,2.367274717498E0));
#24=CARTESIAN_POINT('',(2.370283613063E0,4.505336232387E1,1.880188157018E0));
#25=CARTESIAN_POINT('',(2.725257165095E0,4.503291078371E1,1.313371399662E0));
#26=CARTESIAN_POINT('',(2.950920713900E0,4.501846464650E1,6.662721995549E-1));
#27=CARTESIAN_POINT('',(2.999999772230E0,4.501514444154E1,2.260439360116E-1));
#28=CARTESIAN_POINT('',(2.999999772230E0,4.501514444154E1,2.050173880492E-6));
#30=DIRECTION('',(0.E0,0.E0,1.E0));
#31=VECTOR('',#30,2.64E1);
#32=CARTESIAN_POINT('',(0.E0,4.5115E1,3.E0));
#33=LINE('',#32,#31);
#34=DIRECTION('',(0.E0,0.E0,1.E0));
#35=VECTOR('',#34,5.88E1);
#36=CARTESIAN_POINT('',(0.E0,-4.5115E1,-2.94E1));
#37=LINE('',#36,#35);
#38=CARTESIAN_POINT('',(0.E0,0.E0,-2.94E1));
#39=DIRECTION('',(0.E0,0.E0,1.E0));
#40=DIRECTION('',(0.E0,-1.E0,0.E0));
#41=AXIS2_PLACEMENT_3D('',#38,#39,#40);
#43=DIRECTION('',(0.E0,0.E0,1.E0));
#44=VECTOR('',#43,2.64E1);
#45=CARTESIAN_POINT('',(-1.001754235119E-14,4.5115E1,-2.94E1));
#46=LINE('',#45,#44);
#47=CARTESIAN_POINT('',(2.999999772230E0,4.501514444154E1,2.050173880492E-6));
#48=CARTESIAN_POINT('',(2.999999772230E0,4.501514444154E1,-2.489912056114E-1));
#49=CARTESIAN_POINT('',(2.939193533372E0,4.501924147088E1,-7.087385420301E-1));
#50=CARTESIAN_POINT('',(2.730225079409E0,4.503253391884E1,-1.286051904629E0));
#51=CARTESIAN_POINT('',(2.456639961389E0,4.504840281815E1,-1.747329998604E0));
#52=CARTESIAN_POINT('',(2.130110372634E0,4.506512585984E1,-2.131121579418E0));
#53=CARTESIAN_POINT('',(1.769254503717E0,4.508082546264E1,-2.437665172198E0));
#54=CARTESIAN_POINT('',(1.369965467510E0,4.509484568293E1,-2.682732333460E0));
#55=CARTESIAN_POINT('',(9.319665889427E-1,4.510613483737E1,-2.864804433596E0));
#56=CARTESIAN_POINT('',(4.691020230310E-1,4.511336492140E1,-2.975562822493E0));
#57=CARTESIAN_POINT('',(1.576056762117E-1,4.5115E1,-3.E0));
#58=CARTESIAN_POINT('',(-3.847272848751E-14,4.5115E1,-3.E0));
#60=DIRECTION('',(-9.530029862141E-8,-9.999999999996E-1,8.578047062961E-7));
#61=VECTOR('',#60,2.390024053041E0);
#62=CARTESIAN_POINT('',(3.E0,4.740516849459E1,0.E0));
#63=LINE('',#62,#61);
#64=CARTESIAN_POINT('',(-8.764638660543E-14,4.75E1,3.E0));
#65=CARTESIAN_POINT('',(-2.264419999079E-1,4.75E1,3.E0));
#66=CARTESIAN_POINT('',(-6.676311937141E-1,4.749686376777E1,2.951127079980E0));
#67=CARTESIAN_POINT('',(-1.322194258388E0,4.748292537345E1,2.721310672766E0));
#68=CARTESIAN_POINT('',(-1.885480502143E0,4.746352796174E1,2.365629523969E0));
#69=CARTESIAN_POINT('',(-2.371013693760E0,4.744142378879E1,1.879309386329E0));
#70=CARTESIAN_POINT('',(-2.726137752383E0,4.742198802026E1,1.311417268879E0));
#71=CARTESIAN_POINT('',(-2.950724518045E0,4.740833259447E1,6.665257642671E-1));
#72=CARTESIAN_POINT('',(-3.E0,4.740516849459E1,2.261844733218E-1));
#73=CARTESIAN_POINT('',(-3.E0,4.740516849459E1,0.E0));
#75=CARTESIAN_POINT('',(0.E0,0.E0,2.88E1));
#76=DIRECTION('',(0.E0,0.E0,-1.E0));
#77=DIRECTION('',(0.E0,-1.E0,0.E0));
#78=AXIS2_PLACEMENT_3D('',#75,#76,#77);
#80=CARTESIAN_POINT('',(-3.E0,4.740516849459E1,0.E0));
#81=CARTESIAN_POINT('',(-3.E0,4.740516849459E1,-2.261139778429E-1));
#82=CARTESIAN_POINT('',(-2.950891478803E0,4.740832326522E1,-6.664406440883E-1));
#83=CARTESIAN_POINT('',(-2.725155037251E0,4.742204525427E1,-1.313575889461E0));
#84=CARTESIAN_POINT('',(-2.370186587835E0,4.744146595541E1,-1.880313867368E0));
#85=CARTESIAN_POINT('',(-1.883410506831E0,4.746361698766E1,-2.367458153196E0));
#86=CARTESIAN_POINT('',(-1.319397831759E0,4.748299647350E1,-2.722493219675E0));
#87=CARTESIAN_POINT('',(-6.676922363891E-1,4.749685322968E1,-2.950947947949E0));
#88=CARTESIAN_POINT('',(-2.265376378199E-1,4.75E1,-3.E0));
#89=CARTESIAN_POINT('',(3.445526134843E-14,4.75E1,-3.E0));
#91=CARTESIAN_POINT('',(3.E0,4.740516849459E1,0.E0));
#92=CARTESIAN_POINT('',(3.E0,4.740516849459E1,2.260623038160E-1));
#93=CARTESIAN_POINT('',(2.950911850520E0,4.740832190378E1,6.663126854223E-1));
#94=CARTESIAN_POINT('',(2.725243732299E0,4.742204014630E1,1.313396484877E0));
#95=CARTESIAN_POINT('',(2.370272592040E0,4.744146145754E1,1.880200433242E0));
#96=CARTESIAN_POINT('',(1.883627882015E0,4.746360790917E1,2.367273619926E0));
#97=CARTESIAN_POINT('',(1.319675883078E0,4.748298866780E1,2.722360911334E0));
#98=CARTESIAN_POINT('',(6.679319917226E-1,4.749685040213E1,2.950903627140E0));
#99=CARTESIAN_POINT('',(2.266342912645E-1,4.75E1,3.E0));
#100=CARTESIAN_POINT('',(-8.764638660543E-14,4.75E1,3.E0));
#102=CARTESIAN_POINT('',(3.445526134843E-14,4.75E1,-3.E0));
#103=CARTESIAN_POINT('',(1.575983678200E-1,4.75E1,-3.E0));
#104=CARTESIAN_POINT('',(4.690808619236E-1,4.749844716903E1,-2.975565231013E0));
#105=CARTESIAN_POINT('',(9.319332853341E-1,4.749158064205E1,-2.864814706890E0));
#106=CARTESIAN_POINT('',(1.369928299127E0,4.748085907665E1,-2.682751124228E0));
#107=CARTESIAN_POINT('',(1.769219306159E0,4.746754382851E1,-2.437690547926E0));
#108=CARTESIAN_POINT('',(2.130076912410E0,4.745263405114E1,-2.131154820741E0));
#109=CARTESIAN_POINT('',(2.456614172849E0,4.743675253863E1,-1.747367046538E0));
#110=CARTESIAN_POINT('',(2.730210254570E0,4.742168239311E1,-1.286084197523E0));
#111=CARTESIAN_POINT('',(2.939187505758E0,4.740905938658E1,-7.087679317614E-1));
#112=CARTESIAN_POINT('',(3.E0,4.740516849459E1,-2.490014609795E-1));
#113=CARTESIAN_POINT('',(3.E0,4.740516849459E1,0.E0));
#115=DIRECTION('',(0.E0,0.E0,-1.E0));
#116=VECTOR('',#115,2.58E1);
#117=CARTESIAN_POINT('',(3.445526134843E-14,4.75E1,-3.E0));
#118=LINE('',#117,#116);
#119=DIRECTION('',(0.E0,0.E0,-1.E0));
#120=VECTOR('',#119,5.76E1);
#121=CARTESIAN_POINT('',(0.E0,-4.75E1,2.88E1));
#122=LINE('',#121,#120);
#123=CARTESIAN_POINT('',(0.E0,0.E0,2.88E1));
#124=DIRECTION('',(0.E0,0.E0,1.E0));
#125=DIRECTION('',(0.E0,-1.E0,0.E0));
#126=AXIS2_PLACEMENT_3D('',#123,#124,#125);
#128=DIRECTION('',(0.E0,0.E0,-1.E0));
#129=VECTOR('',#128,2.58E1);
#130=CARTESIAN_POINT('',(-1.054711873394E-14,4.75E1,2.88E1));
#131=LINE('',#130,#129);
#132=DIRECTION('',(-1.441819561455E-9,-1.E0,5.466353300841E-9));
#133=VECTOR('',#132,2.390024099184E0);
#134=CARTESIAN_POINT('',(-3.E0,4.740516849459E1,0.E0));
#135=LINE('',#134,#133);
#136=CARTESIAN_POINT('',(-3.000000003446E0,4.501514439540E1,1.306471636859E-8));
#137=CARTESIAN_POINT('',(-3.000000003446E0,4.501514439540E1,2.261692575901E-1));
#138=CARTESIAN_POINT('',(-2.950732228328E0,4.501847599593E1,6.664898987461E-1));
#139=CARTESIAN_POINT('',(-2.726149232436E0,4.503285600710E1,1.311396092381E0));
#140=CARTESIAN_POINT('',(-2.371022809830E0,4.505332275774E1,1.879299282890E0));
#141=CARTESIAN_POINT('',(-1.885480032032E0,4.507659851527E1,2.365631335136E0));
#142=CARTESIAN_POINT('',(-1.322179748914E0,4.509702300887E1,2.721319342654E0));
#143=CARTESIAN_POINT('',(-6.675993836136E-1,4.511169847401E1,2.951134303586E0));
#144=CARTESIAN_POINT('',(-2.264265463698E-1,4.5115E1,3.E0));
#145=CARTESIAN_POINT('',(0.E0,4.5115E1,3.E0));
#147=CARTESIAN_POINT('',(-3.847272848751E-14,4.5115E1,-3.E0));
#148=CARTESIAN_POINT('',(-2.265214677002E-1,4.5115E1,-3.E0));
#149=CARTESIAN_POINT('',(-6.676587225630E-1,4.511168740137E1,
-2.950955516016E0));
#150=CARTESIAN_POINT('',(-1.319381995074E0,4.509709791123E1,-2.722502566736E0));
#151=CARTESIAN_POINT('',(-1.883409773326E0,4.507669227232E1,-2.367460334745E0));
#152=CARTESIAN_POINT('',(-2.370196832788E0,4.505336710406E1,-1.880302593575E0));
#153=CARTESIAN_POINT('',(-2.725168219373E0,4.503291617462E1,-1.313551604903E0));
#154=CARTESIAN_POINT('',(-2.950900196165E0,4.501846610432E1,
-6.663999788688E-1));
#155=CARTESIAN_POINT('',(-3.000000003446E0,4.501514439540E1,
-2.260967372266E-1));
#156=CARTESIAN_POINT('',(-3.000000003446E0,4.501514439540E1,1.306471636859E-8));
#158=CARTESIAN_POINT('',(0.E0,0.E0,-2.94E1));
#159=DIRECTION('',(0.E0,0.E0,-1.E0));
#160=DIRECTION('',(0.E0,-1.E0,0.E0));
#161=AXIS2_PLACEMENT_3D('',#158,#159,#160);
#163=CARTESIAN_POINT('',(0.E0,0.E0,-3.E1));
#164=DIRECTION('',(0.E0,0.E0,-1.E0));
#165=DIRECTION('',(0.E0,-1.E0,0.E0));
#166=AXIS2_PLACEMENT_3D('',#163,#164,#165);
#168=DIRECTION('',(0.E0,7.071067811865E-1,7.071067811866E-1));
#169=VECTOR('',#168,8.485281374238E-1);
#170=CARTESIAN_POINT('',(0.E0,-4.5715E1,-3.E1));
#171=LINE('',#170,#169);
#172=CARTESIAN_POINT('',(0.E0,0.E0,-3.E1));
#173=DIRECTION('',(0.E0,0.E0,1.E0));
#174=DIRECTION('',(0.E0,-1.E0,0.E0));
#175=AXIS2_PLACEMENT_3D('',#172,#173,#174);
#177=DIRECTION('',(0.E0,-7.071067811865E-1,7.071067811866E-1));
#178=VECTOR('',#177,8.485281374238E-1);
#179=CARTESIAN_POINT('',(0.E0,4.5715E1,-3.E1));
#180=LINE('',#179,#178);
#181=CARTESIAN_POINT('',(0.E0,0.E0,-3.E1));
#182=DIRECTION('',(0.E0,0.E0,-1.E0));
#183=DIRECTION('',(0.E0,-1.E0,0.E0));
#184=AXIS2_PLACEMENT_3D('',#181,#182,#183);
#186=CARTESIAN_POINT('',(0.E0,0.E0,-3.E1));
#187=DIRECTION('',(0.E0,0.E0,1.E0));
#188=DIRECTION('',(0.E0,-1.E0,0.E0));
#189=AXIS2_PLACEMENT_3D('',#186,#187,#188);
#191=CARTESIAN_POINT('',(0.E0,0.E0,-2.88E1));
#192=DIRECTION('',(0.E0,0.E0,-1.E0));
#193=DIRECTION('',(0.E0,-1.E0,0.E0));
#194=AXIS2_PLACEMENT_3D('',#191,#192,#193);
#196=DIRECTION('',(0.E0,3.420201433257E-1,-9.396926207859E-1));
#197=VECTOR('',#196,1.277013326971E0);
#198=CARTESIAN_POINT('',(0.E0,-4.75E1,-2.88E1));
#199=LINE('',#198,#197);
#200=CARTESIAN_POINT('',(0.E0,0.E0,-2.88E1));
#201=DIRECTION('',(0.E0,0.E0,1.E0));
#202=DIRECTION('',(0.E0,-1.E0,0.E0));
#203=AXIS2_PLACEMENT_3D('',#200,#201,#202);
#205=DIRECTION('',(0.E0,-3.420201433257E-1,-9.396926207859E-1));
#206=VECTOR('',#205,1.277013326971E0);
#207=CARTESIAN_POINT('',(-1.054711873394E-14,4.75E1,-2.88E1));
#208=LINE('',#207,#206);
#209=DIRECTION('',(0.E0,-3.420201433257E-1,-9.396926207859E-1));
#210=VECTOR('',#209,1.277013326971E0);
#211=CARTESIAN_POINT('',(0.E0,-4.706323571888E1,3.E1));
#212=LINE('',#211,#210);
#213=CARTESIAN_POINT('',(0.E0,0.E0,3.E1));
#214=DIRECTION('',(0.E0,0.E0,1.E0));
#215=DIRECTION('',(0.E0,-1.E0,0.E0));
#216=AXIS2_PLACEMENT_3D('',#213,#214,#215);
#218=DIRECTION('',(0.E0,3.420201433257E-1,-9.396926207859E-1));
#219=VECTOR('',#218,1.277013326971E0);
#220=CARTESIAN_POINT('',(0.E0,4.706323571888E1,3.E1));
#221=LINE('',#220,#219);
#222=CARTESIAN_POINT('',(0.E0,0.E0,3.E1));
#223=DIRECTION('',(0.E0,0.E0,-1.E0));
#224=DIRECTION('',(0.E0,-1.E0,0.E0));
#225=AXIS2_PLACEMENT_3D('',#222,#223,#224);
#227=CARTESIAN_POINT('',(0.E0,0.E0,3.E1));
#228=DIRECTION('',(0.E0,0.E0,-1.E0));
#229=DIRECTION('',(0.E0,-1.E0,0.E0));
#230=AXIS2_PLACEMENT_3D('',#227,#228,#229);
#232=CARTESIAN_POINT('',(0.E0,0.E0,3.E1));
#233=DIRECTION('',(0.E0,0.E0,1.E0));
#234=DIRECTION('',(0.E0,-1.E0,0.E0));
#235=AXIS2_PLACEMENT_3D('',#232,#233,#234);
#237=CARTESIAN_POINT('',(0.E0,-4.5115E1,2.94E1));
#238=CARTESIAN_POINT('',(0.E0,-4.5715E1,3.E1));
#239=VERTEX_POINT('',#237);
#240=VERTEX_POINT('',#238);
#241=CARTESIAN_POINT('',(0.E0,-4.706323571888E1,3.E1));
#242=CARTESIAN_POINT('',(0.E0,-4.75E1,2.88E1));
#243=VERTEX_POINT('',#241);
#244=VERTEX_POINT('',#242);
#245=CARTESIAN_POINT('',(0.E0,-4.75E1,-2.88E1));
#246=VERTEX_POINT('',#245);
#247=CARTESIAN_POINT('',(0.E0,-4.706323571888E1,-3.E1));
#248=VERTEX_POINT('',#247);
#249=CARTESIAN_POINT('',(0.E0,-4.5715E1,-3.E1));
#250=CARTESIAN_POINT('',(0.E0,-4.5115E1,-2.94E1));
#251=VERTEX_POINT('',#249);
#252=VERTEX_POINT('',#250);
#253=CARTESIAN_POINT('',(-1.001754235119E-14,4.5115E1,2.94E1));
#254=CARTESIAN_POINT('',(0.E0,4.5715E1,3.E1));
#255=VERTEX_POINT('',#253);
#256=VERTEX_POINT('',#254);
#257=CARTESIAN_POINT('',(0.E0,4.706323571888E1,3.E1));
#258=CARTESIAN_POINT('',(-1.054711873394E-14,4.75E1,2.88E1));
#259=VERTEX_POINT('',#257);
#260=VERTEX_POINT('',#258);
#261=CARTESIAN_POINT('',(-1.054711873394E-14,4.75E1,-2.88E1));
#262=CARTESIAN_POINT('',(0.E0,4.706323571888E1,-3.E1));
#263=VERTEX_POINT('',#261);
#264=VERTEX_POINT('',#262);
#265=CARTESIAN_POINT('',(0.E0,4.5715E1,-3.E1));
#266=CARTESIAN_POINT('',(-1.001754235119E-14,4.5115E1,-2.94E1));
#267=VERTEX_POINT('',#265);
#268=VERTEX_POINT('',#266);
#269=VERTEX_POINT('',#64);
#270=VERTEX_POINT('',#73);
#271=VERTEX_POINT('',#89);
#272=VERTEX_POINT('',#136);
#273=VERTEX_POINT('',#145);
#274=VERTEX_POINT('',#147);
#275=VERTEX_POINT('',#91);
#276=VERTEX_POINT('',#28);
#277=CARTESIAN_POINT('',(0.E0,0.E0,2.97E1));
#278=DIRECTION('',(0.E0,0.E0,1.E0));
#279=DIRECTION('',(0.E0,1.E0,0.E0));
#280=AXIS2_PLACEMENT_3D('',#277,#278,#279);
#281=CONICAL_SURFACE('',#280,4.5415E1,4.5E1);
#283=ORIENTED_EDGE('',*,*,#282,.T.);
#285=ORIENTED_EDGE('',*,*,#284,.T.);
#287=ORIENTED_EDGE('',*,*,#286,.F.);
#289=ORIENTED_EDGE('',*,*,#288,.F.);
#290=EDGE_LOOP('',(#283,#285,#287,#289));
#291=FACE_OUTER_BOUND('',#290,.F.);
#292=ADVANCED_FACE('',(#291),#281,.F.);
#293=CARTESIAN_POINT('',(0.E0,0.E0,2.97E1));
#294=DIRECTION('',(0.E0,0.E0,1.E0));
#295=DIRECTION('',(0.E0,1.E0,0.E0));
#296=AXIS2_PLACEMENT_3D('',#293,#294,#295);
#297=CONICAL_SURFACE('',#296,4.5415E1,4.5E1);
#298=ORIENTED_EDGE('',*,*,#282,.F.);
#300=ORIENTED_EDGE('',*,*,#299,.T.);
#301=ORIENTED_EDGE('',*,*,#286,.T.);
#303=ORIENTED_EDGE('',*,*,#302,.F.);
#304=EDGE_LOOP('',(#298,#300,#301,#303));
#305=FACE_OUTER_BOUND('',#304,.F.);
#306=ADVANCED_FACE('',(#305),#297,.F.);
#307=CARTESIAN_POINT('',(0.E0,0.E0,3.3E1));
#308=DIRECTION('',(0.E0,0.E0,-1.E0));
#309=DIRECTION('',(0.E0,-1.E0,0.E0));
#310=AXIS2_PLACEMENT_3D('',#307,#308,#309);
#311=CYLINDRICAL_SURFACE('',#310,4.5115E1);
#313=ORIENTED_EDGE('',*,*,#312,.F.);
#315=ORIENTED_EDGE('',*,*,#314,.T.);
#316=ORIENTED_EDGE('',*,*,#299,.F.);
#318=ORIENTED_EDGE('',*,*,#317,.F.);
#320=ORIENTED_EDGE('',*,*,#319,.T.);
#322=ORIENTED_EDGE('',*,*,#321,.T.);
#324=ORIENTED_EDGE('',*,*,#323,.F.);
#325=EDGE_LOOP('',(#313,#315,#316,#318,#320,#322,#324));
#326=FACE_OUTER_BOUND('',#325,.F.);
#327=ADVANCED_FACE('',(#326),#311,.F.);
#328=CARTESIAN_POINT('',(0.E0,4.75E1,0.E0));
#329=DIRECTION('',(0.E0,-1.E0,0.E0));
#330=DIRECTION('',(1.E0,0.E0,0.E0));
#331=AXIS2_PLACEMENT_3D('',#328,#329,#330);
#332=CYLINDRICAL_SURFACE('',#331,3.E0);
#334=ORIENTED_EDGE('',*,*,#333,.T.);
#336=ORIENTED_EDGE('',*,*,#335,.T.);
#338=ORIENTED_EDGE('',*,*,#337,.T.);
#339=ORIENTED_EDGE('',*,*,#312,.T.);
#341=ORIENTED_EDGE('',*,*,#340,.F.);
#343=ORIENTED_EDGE('',*,*,#342,.T.);
#344=EDGE_LOOP('',(#334,#336,#338,#339,#341,#343));
#345=FACE_OUTER_BOUND('',#344,.F.);
#346=ADVANCED_FACE('',(#345),#332,.F.);
#347=CARTESIAN_POINT('',(0.E0,0.E0,3.3E1));
#348=DIRECTION('',(0.E0,0.E0,-1.E0));
#349=DIRECTION('',(0.E0,-1.E0,0.E0));
#350=AXIS2_PLACEMENT_3D('',#347,#348,#349);
#351=CYLINDRICAL_SURFACE('',#350,4.75E1);
#352=ORIENTED_EDGE('',*,*,#333,.F.);
#354=ORIENTED_EDGE('',*,*,#353,.F.);
#356=ORIENTED_EDGE('',*,*,#355,.F.);
#358=ORIENTED_EDGE('',*,*,#357,.T.);
#360=ORIENTED_EDGE('',*,*,#359,.T.);
#362=ORIENTED_EDGE('',*,*,#361,.F.);
#364=ORIENTED_EDGE('',*,*,#363,.F.);
#365=EDGE_LOOP('',(#352,#354,#356,#358,#360,#362,#364));
#366=FACE_OUTER_BOUND('',#365,.F.);
#367=ADVANCED_FACE('',(#366),#351,.T.);
#368=CARTESIAN_POINT('',(0.E0,0.E0,3.3E1));
#369=DIRECTION('',(0.E0,0.E0,-1.E0));
#370=DIRECTION('',(0.E0,-1.E0,0.E0));
#371=AXIS2_PLACEMENT_3D('',#368,#369,#370);
#372=CYLINDRICAL_SURFACE('',#371,4.75E1);
#373=ORIENTED_EDGE('',*,*,#342,.F.);
#375=ORIENTED_EDGE('',*,*,#374,.F.);
#376=ORIENTED_EDGE('',*,*,#361,.T.);
#378=ORIENTED_EDGE('',*,*,#377,.F.);
#379=ORIENTED_EDGE('',*,*,#357,.F.);
#381=ORIENTED_EDGE('',*,*,#380,.T.);
#382=ORIENTED_EDGE('',*,*,#353,.T.);
#383=EDGE_LOOP('',(#373,#375,#376,#378,#379,#381,#382));
#384=FACE_OUTER_BOUND('',#383,.F.);
#385=ADVANCED_FACE('',(#384),#372,.T.);
#386=CARTESIAN_POINT('',(0.E0,4.75E1,0.E0));
#387=DIRECTION('',(0.E0,-1.E0,0.E0));
#388=DIRECTION('',(1.E0,0.E0,0.E0));
#389=AXIS2_PLACEMENT_3D('',#386,#387,#388);
#390=CYLINDRICAL_SURFACE('',#389,3.E0);
#391=ORIENTED_EDGE('',*,*,#363,.T.);
#392=ORIENTED_EDGE('',*,*,#374,.T.);
#393=ORIENTED_EDGE('',*,*,#340,.T.);
#394=ORIENTED_EDGE('',*,*,#323,.T.);
#396=ORIENTED_EDGE('',*,*,#395,.T.);
#397=ORIENTED_EDGE('',*,*,#335,.F.);
#398=EDGE_LOOP('',(#391,#392,#393,#394,#396,#397));
#399=FACE_OUTER_BOUND('',#398,.F.);
#400=ADVANCED_FACE('',(#399),#390,.F.);
#401=CARTESIAN_POINT('',(0.E0,0.E0,3.3E1));
#402=DIRECTION('',(0.E0,0.E0,-1.E0));
#403=DIRECTION('',(0.E0,-1.E0,0.E0));
#404=AXIS2_PLACEMENT_3D('',#401,#402,#403);
#405=CYLINDRICAL_SURFACE('',#404,4.5115E1);
#406=ORIENTED_EDGE('',*,*,#337,.F.);
#407=ORIENTED_EDGE('',*,*,#395,.F.);
#408=ORIENTED_EDGE('',*,*,#321,.F.);
#410=ORIENTED_EDGE('',*,*,#409,.F.);
#411=ORIENTED_EDGE('',*,*,#317,.T.);
#412=ORIENTED_EDGE('',*,*,#288,.T.);
#413=ORIENTED_EDGE('',*,*,#314,.F.);
#414=EDGE_LOOP('',(#406,#407,#408,#410,#411,#412,#413));
#415=FACE_OUTER_BOUND('',#414,.F.);
#416=ADVANCED_FACE('',(#415),#405,.F.);
#417=CARTESIAN_POINT('',(0.E0,0.E0,-2.97E1));
#418=DIRECTION('',(0.E0,0.E0,-1.E0));
#419=DIRECTION('',(0.E0,-1.E0,0.E0));
#420=AXIS2_PLACEMENT_3D('',#417,#418,#419);
#421=CONICAL_SURFACE('',#420,4.5415E1,4.5E1);
#423=ORIENTED_EDGE('',*,*,#422,.T.);
#424=ORIENTED_EDGE('',*,*,#409,.T.);
#426=ORIENTED_EDGE('',*,*,#425,.F.);
#428=ORIENTED_EDGE('',*,*,#427,.F.);
#429=EDGE_LOOP('',(#423,#424,#426,#428));
#430=FACE_OUTER_BOUND('',#429,.F.);
#431=ADVANCED_FACE('',(#430),#421,.F.);
#432=CARTESIAN_POINT('',(0.E0,0.E0,-2.97E1));
#433=DIRECTION('',(0.E0,0.E0,-1.E0));
#434=DIRECTION('',(0.E0,-1.E0,0.E0));
#435=AXIS2_PLACEMENT_3D('',#432,#433,#434);
#436=CONICAL_SURFACE('',#435,4.5415E1,4.5E1);
#437=ORIENTED_EDGE('',*,*,#422,.F.);
#439=ORIENTED_EDGE('',*,*,#438,.T.);
#440=ORIENTED_EDGE('',*,*,#425,.T.);
#441=ORIENTED_EDGE('',*,*,#319,.F.);
#442=EDGE_LOOP('',(#437,#439,#440,#441));
#443=FACE_OUTER_BOUND('',#442,.F.);
#444=ADVANCED_FACE('',(#443),#436,.F.);
#445=CARTESIAN_POINT('',(0.E0,0.E0,-3.E1));
#446=DIRECTION('',(0.E0,0.E0,-1.E0));
#447=DIRECTION('',(0.E0,-1.E0,0.E0));
#448=AXIS2_PLACEMENT_3D('',#445,#446,#447);
#449=PLANE('',#448);
#451=ORIENTED_EDGE('',*,*,#450,.F.);
#453=ORIENTED_EDGE('',*,*,#452,.T.);
#454=EDGE_LOOP('',(#451,#453));
#455=FACE_OUTER_BOUND('',#454,.F.);
#456=ORIENTED_EDGE('',*,*,#438,.F.);
#457=ORIENTED_EDGE('',*,*,#427,.T.);
#458=EDGE_LOOP('',(#456,#457));
#459=FACE_BOUND('',#458,.F.);
#460=ADVANCED_FACE('',(#455,#459),#449,.T.);
#461=CARTESIAN_POINT('',(0.E0,0.E0,-2.94E1));
#462=DIRECTION('',(0.E0,0.E0,1.E0));
#463=DIRECTION('',(0.E0,1.E0,0.E0));
#464=AXIS2_PLACEMENT_3D('',#461,#462,#463);
#465=CONICAL_SURFACE('',#464,4.728161785944E1,2.E1);
#467=ORIENTED_EDGE('',*,*,#466,.T.);
#468=ORIENTED_EDGE('',*,*,#450,.T.);
#470=ORIENTED_EDGE('',*,*,#469,.F.);
#471=ORIENTED_EDGE('',*,*,#359,.F.);
#472=EDGE_LOOP('',(#467,#468,#470,#471));
#473=FACE_OUTER_BOUND('',#472,.F.);
#474=ADVANCED_FACE('',(#473),#465,.T.);
#475=CARTESIAN_POINT('',(0.E0,0.E0,-2.94E1));
#476=DIRECTION('',(0.E0,0.E0,1.E0));
#477=DIRECTION('',(0.E0,1.E0,0.E0));
#478=AXIS2_PLACEMENT_3D('',#475,#476,#477);
#479=CONICAL_SURFACE('',#478,4.728161785944E1,2.E1);
#480=ORIENTED_EDGE('',*,*,#466,.F.);
#481=ORIENTED_EDGE('',*,*,#377,.T.);
#482=ORIENTED_EDGE('',*,*,#469,.T.);
#483=ORIENTED_EDGE('',*,*,#452,.F.);
#484=EDGE_LOOP('',(#480,#481,#482,#483));
#485=FACE_OUTER_BOUND('',#484,.F.);
#486=ADVANCED_FACE('',(#485),#479,.T.);
#487=CARTESIAN_POINT('',(0.E0,0.E0,2.94E1));
#488=DIRECTION('',(0.E0,0.E0,-1.E0));
#489=DIRECTION('',(0.E0,-1.E0,0.E0));
#490=AXIS2_PLACEMENT_3D('',#487,#488,#489);
#491=CONICAL_SURFACE('',#490,4.728161785944E1,2.E1);
#493=ORIENTED_EDGE('',*,*,#492,.F.);
#495=ORIENTED_EDGE('',*,*,#494,.T.);
#497=ORIENTED_EDGE('',*,*,#496,.T.);
#498=ORIENTED_EDGE('',*,*,#380,.F.);
#499=EDGE_LOOP('',(#493,#495,#497,#498));
#500=FACE_OUTER_BOUND('',#499,.F.);
#501=ADVANCED_FACE('',(#500),#491,.T.);
#502=CARTESIAN_POINT('',(0.E0,0.E0,2.94E1));
#503=DIRECTION('',(0.E0,0.E0,-1.E0));
#504=DIRECTION('',(0.E0,-1.E0,0.E0));
#505=AXIS2_PLACEMENT_3D('',#502,#503,#504);
#506=CONICAL_SURFACE('',#505,4.728161785944E1,2.E1);
#507=ORIENTED_EDGE('',*,*,#492,.T.);
#508=ORIENTED_EDGE('',*,*,#355,.T.);
#509=ORIENTED_EDGE('',*,*,#496,.F.);
#511=ORIENTED_EDGE('',*,*,#510,.F.);
#512=EDGE_LOOP('',(#507,#508,#509,#511));
#513=FACE_OUTER_BOUND('',#512,.F.);
#514=ADVANCED_FACE('',(#513),#506,.T.);
#515=CARTESIAN_POINT('',(0.E0,0.E0,3.E1));
#516=DIRECTION('',(0.E0,0.E0,-1.E0));
#517=DIRECTION('',(0.E0,-1.E0,0.E0));
#518=AXIS2_PLACEMENT_3D('',#515,#516,#517);
#519=PLANE('',#518);
#520=ORIENTED_EDGE('',*,*,#494,.F.);
#521=ORIENTED_EDGE('',*,*,#510,.T.);
#522=EDGE_LOOP('',(#520,#521));
#523=FACE_OUTER_BOUND('',#522,.F.);
#524=ORIENTED_EDGE('',*,*,#284,.F.);
#525=ORIENTED_EDGE('',*,*,#302,.T.);
#526=EDGE_LOOP('',(#524,#525));
#527=FACE_BOUND('',#526,.F.);
#528=ADVANCED_FACE('',(#523,#527),#519,.F.);
#529=CLOSED_SHELL('',(#292,#306,#327,#346,#367,#385,#400,#416,#431,#444,#460,
#474,#486,#501,#514,#528));
#530=MANIFOLD_SOLID_BREP('',#529);
#532=DIMENSIONAL_EXPONENTS(0.E0,0.E0,0.E0,0.E0,0.E0,0.E0,0.E0);
#534=PLANE_ANGLE_MEASURE_WITH_UNIT(PLANE_ANGLE_MEASURE(1.745329251994E-2),#533);
#535=(CONVERSION_BASED_UNIT('DEGREE',#534)NAMED_UNIT(*)PLANE_ANGLE_UNIT());
#537=UNCERTAINTY_MEASURE_WITH_UNIT(LENGTH_MEASURE(1.471335041200E-2),#531,
'closure',
'Maximum model space distance between geometric entities at asserted connectivities');
#538=(GEOMETRIC_REPRESENTATION_CONTEXT(3)GLOBAL_UNCERTAINTY_ASSIGNED_CONTEXT((
#537))GLOBAL_UNIT_ASSIGNED_CONTEXT((#531,#535,#536))REPRESENTATION_CONTEXT
('ID1','3'));
#540=APPLICATION_CONTEXT(
'CONFIGURATION CONTROLLED 3D DESIGNS OF MECHANICAL PARTS AND ASSEMBLIES');
#541=APPLICATION_PROTOCOL_DEFINITION('international standard',
'config_control_design',1994,#540);
#542=DESIGN_CONTEXT('',#540,'design');
#543=MECHANICAL_CONTEXT('',#540,'mechanical');
#544=PRODUCT('PG__A_2016_10_21','PG__A_2016_10_21','NOT SPECIFIED',(#543));
#545=PRODUCT_DEFINITION_FORMATION_WITH_SPECIFIED_SOURCE('1','LAST_VERSION',#544,
.MADE.);
#549=PRODUCT_CATEGORY('part','');
#550=PRODUCT_RELATED_PRODUCT_CATEGORY('detail','',(#544));
#551=PRODUCT_CATEGORY_RELATIONSHIP('','',#549,#550);
#552=SECURITY_CLASSIFICATION_LEVEL('unclassified');
#553=SECURITY_CLASSIFICATION('','',#552);
#554=CC_DESIGN_SECURITY_CLASSIFICATION(#553,(#545));
#555=APPROVAL_STATUS('approved');
#556=APPROVAL(#555,'');
#557=CC_DESIGN_APPROVAL(#556,(#553,#545,#546));
#558=CALENDAR_DATE(116,8,8);
#559=COORDINATED_UNIVERSAL_TIME_OFFSET(2,0,.AHEAD.);
#560=LOCAL_TIME(9,52,3.1E1,#559);
#561=DATE_AND_TIME(#558,#560);
#562=APPROVAL_DATE_TIME(#561,#556);
#563=DATE_TIME_ROLE('creation_date');
#564=CC_DESIGN_DATE_AND_TIME_ASSIGNMENT(#561,#563,(#546));
#565=DATE_TIME_ROLE('classification_date');
#566=CC_DESIGN_DATE_AND_TIME_ASSIGNMENT(#561,#565,(#553));
#567=PERSON('UNSPECIFIED','UNSPECIFIED',$,$,$,$);
#568=ORGANIZATION('UNSPECIFIED','UNSPECIFIED','UNSPECIFIED');
#569=PERSON_AND_ORGANIZATION(#567,#568);
#570=APPROVAL_ROLE('approver');
#571=APPROVAL_PERSON_ORGANIZATION(#569,#556,#570);
#572=PERSON_AND_ORGANIZATION_ROLE('creator');
#573=CC_DESIGN_PERSON_AND_ORGANIZATION_ASSIGNMENT(#569,#572,(#545,#546));
#574=PERSON_AND_ORGANIZATION_ROLE('design_supplier');
#575=CC_DESIGN_PERSON_AND_ORGANIZATION_ASSIGNMENT(#569,#574,(#545));
#576=PERSON_AND_ORGANIZATION_ROLE('classification_officer');
#577=CC_DESIGN_PERSON_AND_ORGANIZATION_ASSIGNMENT(#569,#576,(#553));
#578=PERSON_AND_ORGANIZATION_ROLE('design_owner');
#579=CC_DESIGN_PERSON_AND_ORGANIZATION_ASSIGNMENT(#569,#578,(#544));
#5=CIRCLE('',#4,4.5115E1);
#14=CIRCLE('',#13,4.5115E1);
#29=B_SPLINE_CURVE_WITH_KNOTS('',3,(#19,#20,#21,#22,#23,#24,#25,#26,#27,#28),
.UNSPECIFIED.,.F.,.F.,(4,1,1,1,1,1,1,4),(0.E0,1.428571428571E-1,
2.857142857143E-1,4.285714285714E-1,5.714285714286E-1,7.142857142857E-1,
8.571428571429E-1,1.E0),.UNSPECIFIED.);
#42=CIRCLE('',#41,4.5115E1);
#59=B_SPLINE_CURVE_WITH_KNOTS('',3,(#47,#48,#49,#50,#51,#52,#53,#54,#55,#56,#57,
#58),.UNSPECIFIED.,.F.,.F.,(4,1,1,1,1,1,1,1,1,4),(0.E0,1.111111111111E-1,
2.222222222222E-1,3.333333333333E-1,4.444444444444E-1,5.555555555556E-1,
6.666666666667E-1,7.777777777778E-1,8.888888888889E-1,1.E0),.UNSPECIFIED.);
#74=B_SPLINE_CURVE_WITH_KNOTS('',3,(#64,#65,#66,#67,#68,#69,#70,#71,#72,#73),
.UNSPECIFIED.,.F.,.F.,(4,1,1,1,1,1,1,4),(0.E0,1.428571428571E-1,
2.857142857143E-1,4.285714285714E-1,5.714285714286E-1,7.142857142857E-1,
8.571428571429E-1,1.E0),.UNSPECIFIED.);
#79=CIRCLE('',#78,4.75E1);
#90=B_SPLINE_CURVE_WITH_KNOTS('',3,(#80,#81,#82,#83,#84,#85,#86,#87,#88,#89),
.UNSPECIFIED.,.F.,.F.,(4,1,1,1,1,1,1,4),(0.E0,1.428571428571E-1,
2.857142857143E-1,4.285714285714E-1,5.714285714286E-1,7.142857142857E-1,
8.571428571429E-1,1.E0),.UNSPECIFIED.);
#101=B_SPLINE_CURVE_WITH_KNOTS('',3,(#91,#92,#93,#94,#95,#96,#97,#98,#99,#100),
.UNSPECIFIED.,.F.,.F.,(4,1,1,1,1,1,1,4),(0.E0,1.428571428571E-1,
2.857142857143E-1,4.285714285714E-1,5.714285714286E-1,7.142857142857E-1,
8.571428571429E-1,1.E0),.UNSPECIFIED.);
#114=B_SPLINE_CURVE_WITH_KNOTS('',3,(#102,#103,#104,#105,#106,#107,#108,#109,
#110,#111,#112,#113),.UNSPECIFIED.,.F.,.F.,(4,1,1,1,1,1,1,1,1,4),(0.E0,
1.111111111111E-1,2.222222222222E-1,3.333333333333E-1,4.444444444444E-1,
5.555555555556E-1,6.666666666667E-1,7.777777777778E-1,8.888888888889E-1,1.E0),
.UNSPECIFIED.);
#127=CIRCLE('',#126,4.75E1);
#146=B_SPLINE_CURVE_WITH_KNOTS('',3,(#136,#137,#138,#139,#140,#141,#142,#143,
#144,#145),.UNSPECIFIED.,.F.,.F.,(4,1,1,1,1,1,1,4),(0.E0,1.428571428571E-1,
2.857142857143E-1,4.285714285714E-1,5.714285714286E-1,7.142857142857E-1,
8.571428571429E-1,1.E0),.UNSPECIFIED.);
#157=B_SPLINE_CURVE_WITH_KNOTS('',3,(#147,#148,#149,#150,#151,#152,#153,#154,
#155,#156),.UNSPECIFIED.,.F.,.F.,(4,1,1,1,1,1,1,4),(0.E0,1.428571428571E-1,
2.857142857143E-1,4.285714285714E-1,5.714285714286E-1,7.142857142857E-1,
8.571428571429E-1,1.E0),.UNSPECIFIED.);
#162=CIRCLE('',#161,4.5115E1);
#167=CIRCLE('',#166,4.5715E1);
#176=CIRCLE('',#175,4.5715E1);
#185=CIRCLE('',#184,4.706323571888E1);
#190=CIRCLE('',#189,4.706323571888E1);
#195=CIRCLE('',#194,4.75E1);
#204=CIRCLE('',#203,4.75E1);
#217=CIRCLE('',#216,4.706323571888E1);
#226=CIRCLE('',#225,4.706323571888E1);
#231=CIRCLE('',#230,4.5715E1);
#236=CIRCLE('',#235,4.5715E1);
#282=EDGE_CURVE('',#239,#240,#9,.T.);
#284=EDGE_CURVE('',#240,#256,#231,.T.);
#286=EDGE_CURVE('',#255,#256,#18,.T.);
#288=EDGE_CURVE('',#239,#255,#5,.T.);
#299=EDGE_CURVE('',#239,#255,#14,.T.);
#302=EDGE_CURVE('',#240,#256,#236,.T.);
#312=EDGE_CURVE('',#273,#276,#29,.T.);
#314=EDGE_CURVE('',#273,#255,#33,.T.);
#317=EDGE_CURVE('',#252,#239,#37,.T.);
#319=EDGE_CURVE('',#252,#268,#42,.T.);
#321=EDGE_CURVE('',#268,#274,#46,.T.);
#323=EDGE_CURVE('',#276,#274,#59,.T.);
#333=EDGE_CURVE('',#269,#270,#74,.T.);
#335=EDGE_CURVE('',#270,#272,#135,.T.);
#337=EDGE_CURVE('',#272,#273,#146,.T.);
#340=EDGE_CURVE('',#275,#276,#63,.T.);
#342=EDGE_CURVE('',#275,#269,#101,.T.);
#353=EDGE_CURVE('',#260,#269,#131,.T.);
#355=EDGE_CURVE('',#244,#260,#79,.T.);
#357=EDGE_CURVE('',#244,#246,#122,.T.);
#359=EDGE_CURVE('',#246,#263,#195,.T.);
#361=EDGE_CURVE('',#271,#263,#118,.T.);
#363=EDGE_CURVE('',#270,#271,#90,.T.);
#374=EDGE_CURVE('',#271,#275,#114,.T.);
#377=EDGE_CURVE('',#246,#263,#204,.T.);
#380=EDGE_CURVE('',#244,#260,#127,.T.);
#395=EDGE_CURVE('',#274,#272,#157,.T.);
#409=EDGE_CURVE('',#252,#268,#162,.T.);
#422=EDGE_CURVE('',#251,#252,#171,.T.);
#425=EDGE_CURVE('',#267,#268,#180,.T.);
#427=EDGE_CURVE('',#251,#267,#167,.T.);
#438=EDGE_CURVE('',#251,#267,#176,.T.);
#450=EDGE_CURVE('',#248,#264,#185,.T.);
#452=EDGE_CURVE('',#248,#264,#190,.T.);
#466=EDGE_CURVE('',#246,#248,#199,.T.);
#469=EDGE_CURVE('',#263,#264,#208,.T.);
#492=EDGE_CURVE('',#243,#244,#212,.T.);
#494=EDGE_CURVE('',#243,#259,#217,.T.);
#496=EDGE_CURVE('',#259,#260,#221,.T.);
#510=EDGE_CURVE('',#243,#259,#226,.T.);
#531=(LENGTH_UNIT()NAMED_UNIT(*)SI_UNIT(.MILLI.,.METRE.));
#533=(NAMED_UNIT(*)PLANE_ANGLE_UNIT()SI_UNIT($,.RADIAN.));
#536=(NAMED_UNIT(*)SI_UNIT($,.STERADIAN.)SOLID_ANGLE_UNIT());
#539=ADVANCED_BREP_SHAPE_REPRESENTATION('',(#530),#538);
#546=PRODUCT_DEFINITION('design','',#545,#542);
#547=PRODUCT_DEFINITION_SHAPE('','SHAPE FOR PG__A_2016_10_21.',#546);
#548=SHAPE_DEFINITION_REPRESENTATION(#547,#539);
ENDSEC;
END-ISO-10303-21;
