ISO-10303-21;
HEADER;
FILE_DESCRIPTION((''),'2;1');
FILE_NAME('PXG__STEPVORLAGE','2016-08-09T',('deusss58'),(''),
'PRO/ENGINEER BY PARAMETRIC TECHNOLOGY CORPORATION, 2014430',
'PRO/ENGINEER BY PARAMETRIC TECHNOLOGY CORPORATION, 2014430','');
FILE_SCHEMA(('CONFIG_CONTROL_DESIGN'));
ENDSEC;
DATA;
#1=CARTESIAN_POINT('',(0.E0,0.E0,0.E0));
#2=DIRECTION('',(0.E0,0.E0,-1.E0));
#3=DIRECTION('',(-1.E0,0.E0,0.E0));
#4=AXIS2_PLACEMENT_3D('',#1,#2,#3);
#6=CARTESIAN_POINT('',(0.E0,0.E0,0.E0));
#7=DIRECTION('',(0.E0,0.E0,-1.E0));
#8=DIRECTION('',(1.E0,0.E0,0.E0));
#9=AXIS2_PLACEMENT_3D('',#6,#7,#8);
#11=CARTESIAN_POINT('',(0.E0,0.E0,0.E0));
#12=DIRECTION('',(0.E0,0.E0,1.E0));
#13=DIRECTION('',(-1.E0,0.E0,0.E0));
#14=AXIS2_PLACEMENT_3D('',#11,#12,#13);
#16=CARTESIAN_POINT('',(0.E0,0.E0,0.E0));
#17=DIRECTION('',(0.E0,0.E0,1.E0));
#18=DIRECTION('',(1.E0,0.E0,0.E0));
#19=AXIS2_PLACEMENT_3D('',#16,#17,#18);
#21=CARTESIAN_POINT('',(0.E0,7.5E0,0.E0));
#22=DIRECTION('',(0.E0,0.E0,1.E0));
#23=DIRECTION('',(1.E0,0.E0,0.E0));
#24=AXIS2_PLACEMENT_3D('',#21,#22,#23);
#26=CARTESIAN_POINT('',(0.E0,7.5E0,0.E0));
#27=DIRECTION('',(0.E0,0.E0,1.E0));
#28=DIRECTION('',(-1.E0,0.E0,0.E0));
#29=AXIS2_PLACEMENT_3D('',#26,#27,#28);
#31=DIRECTION('',(0.E0,0.E0,1.E0));
#32=VECTOR('',#31,1.45E0);
#33=CARTESIAN_POINT('',(1.E1,0.E0,-1.45E0));
#34=LINE('',#33,#32);
#35=DIRECTION('',(0.E0,0.E0,1.E0));
#36=VECTOR('',#35,1.45E0);
#37=CARTESIAN_POINT('',(-1.E1,0.E0,-1.45E0));
#38=LINE('',#37,#36);
#39=CARTESIAN_POINT('',(0.E0,0.E0,-1.45E0));
#40=DIRECTION('',(0.E0,0.E0,-1.E0));
#41=DIRECTION('',(-1.E0,0.E0,0.E0));
#42=AXIS2_PLACEMENT_3D('',#39,#40,#41);
#44=CARTESIAN_POINT('',(0.E0,0.E0,-1.45E0));
#45=DIRECTION('',(0.E0,0.E0,-1.E0));
#46=DIRECTION('',(1.E0,0.E0,0.E0));
#47=AXIS2_PLACEMENT_3D('',#44,#45,#46);
#49=CARTESIAN_POINT('',(0.E0,0.E0,-1.45E0));
#50=DIRECTION('',(0.E0,0.E0,1.E0));
#51=DIRECTION('',(-1.E0,0.E0,0.E0));
#52=AXIS2_PLACEMENT_3D('',#49,#50,#51);
#54=CARTESIAN_POINT('',(0.E0,0.E0,-1.45E0));
#55=DIRECTION('',(0.E0,0.E0,1.E0));
#56=DIRECTION('',(1.E0,0.E0,0.E0));
#57=AXIS2_PLACEMENT_3D('',#54,#55,#56);
#59=CARTESIAN_POINT('',(0.E0,7.5E0,-1.45E0));
#60=DIRECTION('',(0.E0,0.E0,1.E0));
#61=DIRECTION('',(1.E0,0.E0,0.E0));
#62=AXIS2_PLACEMENT_3D('',#59,#60,#61);
#64=CARTESIAN_POINT('',(0.E0,7.5E0,-1.45E0));
#65=DIRECTION('',(0.E0,0.E0,1.E0));
#66=DIRECTION('',(-1.E0,0.E0,0.E0));
#67=AXIS2_PLACEMENT_3D('',#64,#65,#66);
#69=DIRECTION('',(0.E0,0.E0,1.E0));
#70=VECTOR('',#69,1.45E0);
#71=CARTESIAN_POINT('',(5.E0,0.E0,-1.45E0));
#72=LINE('',#71,#70);
#73=DIRECTION('',(0.E0,0.E0,1.E0));
#74=VECTOR('',#73,1.45E0);
#75=CARTESIAN_POINT('',(-5.E0,0.E0,-1.45E0));
#76=LINE('',#75,#74);
#77=DIRECTION('',(0.E0,0.E0,-1.E0));
#78=VECTOR('',#77,1.45E0);
#79=CARTESIAN_POINT('',(8.75E-1,7.5E0,0.E0));
#80=LINE('',#79,#78);
#81=DIRECTION('',(0.E0,0.E0,-1.E0));
#82=VECTOR('',#81,1.45E0);
#83=CARTESIAN_POINT('',(-8.75E-1,7.5E0,0.E0));
#84=LINE('',#83,#82);
#85=CARTESIAN_POINT('',(-1.E1,0.E0,0.E0));
#86=CARTESIAN_POINT('',(1.E1,0.E0,0.E0));
#87=VERTEX_POINT('',#85);
#88=VERTEX_POINT('',#86);
#89=CARTESIAN_POINT('',(-5.E0,0.E0,0.E0));
#90=CARTESIAN_POINT('',(5.E0,0.E0,0.E0));
#91=VERTEX_POINT('',#89);
#92=VERTEX_POINT('',#90);
#93=CARTESIAN_POINT('',(-1.E1,0.E0,-1.45E0));
#94=CARTESIAN_POINT('',(1.E1,0.E0,-1.45E0));
#95=VERTEX_POINT('',#93);
#96=VERTEX_POINT('',#94);
#97=CARTESIAN_POINT('',(-5.E0,0.E0,-1.45E0));
#98=CARTESIAN_POINT('',(5.E0,0.E0,-1.45E0));
#99=VERTEX_POINT('',#97);
#100=VERTEX_POINT('',#98);
#101=CARTESIAN_POINT('',(8.75E-1,7.5E0,0.E0));
#102=CARTESIAN_POINT('',(-8.75E-1,7.5E0,0.E0));
#103=VERTEX_POINT('',#101);
#104=VERTEX_POINT('',#102);
#105=CARTESIAN_POINT('',(8.75E-1,7.5E0,-1.45E0));
#106=CARTESIAN_POINT('',(-8.75E-1,7.5E0,-1.45E0));
#107=VERTEX_POINT('',#105);
#108=VERTEX_POINT('',#106);
#109=CARTESIAN_POINT('',(0.E0,0.E0,0.E0));
#110=DIRECTION('',(0.E0,0.E0,1.E0));
#111=DIRECTION('',(1.E0,0.E0,0.E0));
#112=AXIS2_PLACEMENT_3D('',#109,#110,#111);
#113=PLANE('',#112);
#115=ORIENTED_EDGE('',*,*,#114,.T.);
#117=ORIENTED_EDGE('',*,*,#116,.T.);
#118=EDGE_LOOP('',(#115,#117));
#119=FACE_OUTER_BOUND('',#118,.F.);
#121=ORIENTED_EDGE('',*,*,#120,.T.);
#123=ORIENTED_EDGE('',*,*,#122,.T.);
#124=EDGE_LOOP('',(#121,#123));
#125=FACE_BOUND('',#124,.F.);
#127=ORIENTED_EDGE('',*,*,#126,.T.);
#129=ORIENTED_EDGE('',*,*,#128,.T.);
#130=EDGE_LOOP('',(#127,#129));
#131=FACE_BOUND('',#130,.F.);
#132=ADVANCED_FACE('',(#119,#125,#131),#113,.T.);
#133=CARTESIAN_POINT('',(0.E0,0.E0,0.E0));
#134=DIRECTION('',(0.E0,0.E0,1.E0));
#135=DIRECTION('',(1.E0,0.E0,0.E0));
#136=AXIS2_PLACEMENT_3D('',#133,#134,#135);
#137=CYLINDRICAL_SURFACE('',#136,1.E1);
#138=ORIENTED_EDGE('',*,*,#114,.F.);
#140=ORIENTED_EDGE('',*,*,#139,.F.);
#142=ORIENTED_EDGE('',*,*,#141,.T.);
#144=ORIENTED_EDGE('',*,*,#143,.T.);
#145=EDGE_LOOP('',(#138,#140,#142,#144));
#146=FACE_OUTER_BOUND('',#145,.F.);
#147=ADVANCED_FACE('',(#146),#137,.T.);
#148=CARTESIAN_POINT('',(0.E0,0.E0,0.E0));
#149=DIRECTION('',(0.E0,0.E0,1.E0));
#150=DIRECTION('',(1.E0,0.E0,0.E0));
#151=AXIS2_PLACEMENT_3D('',#148,#149,#150);
#152=CYLINDRICAL_SURFACE('',#151,1.E1);
#153=ORIENTED_EDGE('',*,*,#116,.F.);
#154=ORIENTED_EDGE('',*,*,#143,.F.);
#156=ORIENTED_EDGE('',*,*,#155,.T.);
#157=ORIENTED_EDGE('',*,*,#139,.T.);
#158=EDGE_LOOP('',(#153,#154,#156,#157));
#159=FACE_OUTER_BOUND('',#158,.F.);
#160=ADVANCED_FACE('',(#159),#152,.T.);
#161=CARTESIAN_POINT('',(0.E0,0.E0,-1.45E0));
#162=DIRECTION('',(0.E0,0.E0,1.E0));
#163=DIRECTION('',(1.E0,0.E0,0.E0));
#164=AXIS2_PLACEMENT_3D('',#161,#162,#163);
#165=PLANE('',#164);
#166=ORIENTED_EDGE('',*,*,#141,.F.);
#167=ORIENTED_EDGE('',*,*,#155,.F.);
#168=EDGE_LOOP('',(#166,#167));
#169=FACE_OUTER_BOUND('',#168,.F.);
#171=ORIENTED_EDGE('',*,*,#170,.F.);
#173=ORIENTED_EDGE('',*,*,#172,.F.);
#174=EDGE_LOOP('',(#171,#173));
#175=FACE_BOUND('',#174,.F.);
#177=ORIENTED_EDGE('',*,*,#176,.F.);
#179=ORIENTED_EDGE('',*,*,#178,.F.);
#180=EDGE_LOOP('',(#177,#179));
#181=FACE_BOUND('',#180,.F.);
#182=ADVANCED_FACE('',(#169,#175,#181),#165,.F.);
#183=CARTESIAN_POINT('',(0.E0,0.E0,0.E0));
#184=DIRECTION('',(0.E0,0.E0,1.E0));
#185=DIRECTION('',(1.E0,0.E0,0.E0));
#186=AXIS2_PLACEMENT_3D('',#183,#184,#185);
#187=CYLINDRICAL_SURFACE('',#186,5.E0);
#188=ORIENTED_EDGE('',*,*,#120,.F.);
#190=ORIENTED_EDGE('',*,*,#189,.F.);
#191=ORIENTED_EDGE('',*,*,#170,.T.);
#193=ORIENTED_EDGE('',*,*,#192,.T.);
#194=EDGE_LOOP('',(#188,#190,#191,#193));
#195=FACE_OUTER_BOUND('',#194,.F.);
#196=ADVANCED_FACE('',(#195),#187,.F.);
#197=CARTESIAN_POINT('',(0.E0,0.E0,0.E0));
#198=DIRECTION('',(0.E0,0.E0,1.E0));
#199=DIRECTION('',(1.E0,0.E0,0.E0));
#200=AXIS2_PLACEMENT_3D('',#197,#198,#199);
#201=CYLINDRICAL_SURFACE('',#200,5.E0);
#202=ORIENTED_EDGE('',*,*,#122,.F.);
#203=ORIENTED_EDGE('',*,*,#192,.F.);
#204=ORIENTED_EDGE('',*,*,#172,.T.);
#205=ORIENTED_EDGE('',*,*,#189,.T.);
#206=EDGE_LOOP('',(#202,#203,#204,#205));
#207=FACE_OUTER_BOUND('',#206,.F.);
#208=ADVANCED_FACE('',(#207),#201,.F.);
#209=CARTESIAN_POINT('',(0.E0,7.5E0,0.E0));
#210=DIRECTION('',(0.E0,0.E0,1.E0));
#211=DIRECTION('',(1.E0,0.E0,0.E0));
#212=AXIS2_PLACEMENT_3D('',#209,#210,#211);
#213=CYLINDRICAL_SURFACE('',#212,8.75E-1);
#214=ORIENTED_EDGE('',*,*,#126,.F.);
#216=ORIENTED_EDGE('',*,*,#215,.T.);
#217=ORIENTED_EDGE('',*,*,#176,.T.);
#219=ORIENTED_EDGE('',*,*,#218,.F.);
#220=EDGE_LOOP('',(#214,#216,#217,#219));
#221=FACE_OUTER_BOUND('',#220,.F.);
#222=ADVANCED_FACE('',(#221),#213,.F.);
#223=CARTESIAN_POINT('',(0.E0,7.5E0,0.E0));
#224=DIRECTION('',(0.E0,0.E0,1.E0));
#225=DIRECTION('',(1.E0,0.E0,0.E0));
#226=AXIS2_PLACEMENT_3D('',#223,#224,#225);
#227=CYLINDRICAL_SURFACE('',#226,8.75E-1);
#228=ORIENTED_EDGE('',*,*,#128,.F.);
#229=ORIENTED_EDGE('',*,*,#218,.T.);
#230=ORIENTED_EDGE('',*,*,#178,.T.);
#231=ORIENTED_EDGE('',*,*,#215,.F.);
#232=EDGE_LOOP('',(#228,#229,#230,#231));
#233=FACE_OUTER_BOUND('',#232,.F.);
#234=ADVANCED_FACE('',(#233),#227,.F.);
#235=CLOSED_SHELL('',(#132,#147,#160,#182,#196,#208,#222,#234));
#236=MANIFOLD_SOLID_BREP('',#235);
#238=DIMENSIONAL_EXPONENTS(0.E0,0.E0,0.E0,0.E0,0.E0,0.E0,0.E0);
#240=PLANE_ANGLE_MEASURE_WITH_UNIT(PLANE_ANGLE_MEASURE(1.745329251994E-2),#239);
#241=(CONVERSION_BASED_UNIT('DEGREE',#240)NAMED_UNIT(*)PLANE_ANGLE_UNIT());
#243=UNCERTAINTY_MEASURE_WITH_UNIT(LENGTH_MEASURE(2.832028130304E-3),#237,
'closure',
'Maximum model space distance between geometric entities at asserted connectivities');
#244=(GEOMETRIC_REPRESENTATION_CONTEXT(3)GLOBAL_UNCERTAINTY_ASSIGNED_CONTEXT((
#243))GLOBAL_UNIT_ASSIGNED_CONTEXT((#237,#241,#242))REPRESENTATION_CONTEXT
('ID1','3'));
#246=APPLICATION_CONTEXT(
'CONFIGURATION CONTROLLED 3D DESIGNS OF MECHANICAL PARTS AND ASSEMBLIES');
#247=APPLICATION_PROTOCOL_DEFINITION('international standard',
'config_control_design',1994,#246);
#248=DESIGN_CONTEXT('',#246,'design');
#249=MECHANICAL_CONTEXT('',#246,'mechanical');
#250=PRODUCT('PXG__STEPVORLAGE','PXG__STEPVORLAGE','NOT SPECIFIED',(#249));
#251=PRODUCT_DEFINITION_FORMATION_WITH_SPECIFIED_SOURCE('1','LAST_VERSION',#250,
.MADE.);
#255=PRODUCT_CATEGORY('part','');
#256=PRODUCT_RELATED_PRODUCT_CATEGORY('detail','',(#250));
#257=PRODUCT_CATEGORY_RELATIONSHIP('','',#255,#256);
#258=SECURITY_CLASSIFICATION_LEVEL('unclassified');
#259=SECURITY_CLASSIFICATION('','',#258);
#260=CC_DESIGN_SECURITY_CLASSIFICATION(#259,(#251));
#261=APPROVAL_STATUS('approved');
#262=APPROVAL(#261,'');
#263=CC_DESIGN_APPROVAL(#262,(#259,#251,#252));
#264=CALENDAR_DATE(116,9,8);
#265=COORDINATED_UNIVERSAL_TIME_OFFSET(2,0,.AHEAD.);
#266=LOCAL_TIME(11,51,1.8E1,#265);
#267=DATE_AND_TIME(#264,#266);
#268=APPROVAL_DATE_TIME(#267,#262);
#269=DATE_TIME_ROLE('creation_date');
#270=CC_DESIGN_DATE_AND_TIME_ASSIGNMENT(#267,#269,(#252));
#271=DATE_TIME_ROLE('classification_date');
#272=CC_DESIGN_DATE_AND_TIME_ASSIGNMENT(#267,#271,(#259));
#273=PERSON('UNSPECIFIED','UNSPECIFIED',$,$,$,$);
#274=ORGANIZATION('UNSPECIFIED','UNSPECIFIED','UNSPECIFIED');
#275=PERSON_AND_ORGANIZATION(#273,#274);
#276=APPROVAL_ROLE('approver');
#277=APPROVAL_PERSON_ORGANIZATION(#275,#262,#276);
#278=PERSON_AND_ORGANIZATION_ROLE('creator');
#279=CC_DESIGN_PERSON_AND_ORGANIZATION_ASSIGNMENT(#275,#278,(#251,#252));
#280=PERSON_AND_ORGANIZATION_ROLE('design_supplier');
#281=CC_DESIGN_PERSON_AND_ORGANIZATION_ASSIGNMENT(#275,#280,(#251));
#282=PERSON_AND_ORGANIZATION_ROLE('classification_officer');
#283=CC_DESIGN_PERSON_AND_ORGANIZATION_ASSIGNMENT(#275,#282,(#259));
#284=PERSON_AND_ORGANIZATION_ROLE('design_owner');
#285=CC_DESIGN_PERSON_AND_ORGANIZATION_ASSIGNMENT(#275,#284,(#250));
#5=CIRCLE('',#4,1.E1);
#10=CIRCLE('',#9,1.E1);
#15=CIRCLE('',#14,5.E0);
#20=CIRCLE('',#19,5.E0);
#25=CIRCLE('',#24,8.75E-1);
#30=CIRCLE('',#29,8.75E-1);
#43=CIRCLE('',#42,1.E1);
#48=CIRCLE('',#47,1.E1);
#53=CIRCLE('',#52,5.E0);
#58=CIRCLE('',#57,5.E0);
#63=CIRCLE('',#62,8.75E-1);
#68=CIRCLE('',#67,8.75E-1);
#114=EDGE_CURVE('',#87,#88,#5,.T.);
#116=EDGE_CURVE('',#88,#87,#10,.T.);
#120=EDGE_CURVE('',#91,#92,#15,.T.);
#122=EDGE_CURVE('',#92,#91,#20,.T.);
#126=EDGE_CURVE('',#103,#104,#25,.T.);
#128=EDGE_CURVE('',#104,#103,#30,.T.);
#139=EDGE_CURVE('',#95,#87,#38,.T.);
#141=EDGE_CURVE('',#95,#96,#43,.T.);
#143=EDGE_CURVE('',#96,#88,#34,.T.);
#155=EDGE_CURVE('',#96,#95,#48,.T.);
#170=EDGE_CURVE('',#99,#100,#53,.T.);
#172=EDGE_CURVE('',#100,#99,#58,.T.);
#176=EDGE_CURVE('',#107,#108,#63,.T.);
#178=EDGE_CURVE('',#108,#107,#68,.T.);
#189=EDGE_CURVE('',#99,#91,#76,.T.);
#192=EDGE_CURVE('',#100,#92,#72,.T.);
#215=EDGE_CURVE('',#103,#107,#80,.T.);
#218=EDGE_CURVE('',#104,#108,#84,.T.);
#237=(LENGTH_UNIT()NAMED_UNIT(*)SI_UNIT(.MILLI.,.METRE.));
#239=(NAMED_UNIT(*)PLANE_ANGLE_UNIT()SI_UNIT($,.RADIAN.));
#242=(NAMED_UNIT(*)SI_UNIT($,.STERADIAN.)SOLID_ANGLE_UNIT());
#245=ADVANCED_BREP_SHAPE_REPRESENTATION('',(#236),#244);
#252=PRODUCT_DEFINITION('design','',#251,#248);
#253=PRODUCT_DEFINITION_SHAPE('','SHAPE FOR PXG__STEPVORLAGE.',#252);
#254=SHAPE_DEFINITION_REPRESENTATION(#253,#245);
ENDSEC;
END-ISO-10303-21;
